  0
SECTION
  2
HEADER
  9
$ACADVER
  1
AC1015
  9
$ACADMAINTVER
 70
    20
  9
$DWGCODEPAGE
  3
ANSI_1252
  9
$INSBASE
 10
0.0
 20
0.0
 30
0.0
  9
$EXTMIN
 10
1058.613683910301
 20
904.1769280613975
 30
0.0
  9
$EXTMAX
 10
1062.539392504961
 20
904.4769280613975
 30
0.0
  9
$LIMMIN
 10
0.0
 20
0.0
  9
$LIMMAX
 10
420.0
 20
297.0
  9
$ORTHOMODE
 70
     0
  9
$REGENMODE
 70
     1
  9
$FILLMODE
 70
     1
  9
$QTEXTMODE
 70
     0
  9
$MIRRTEXT
 70
     0
  9
$LTSCALE
 40
1.0
  9
$ATTMODE
 70
     1
  9
$TEXTSIZE
 40
2.5
  9
$TRACEWID
 40
1.0
  9
$TEXTSTYLE
  7
Standard
  9
$CLAYER
  8
0
  9
$CELTYPE
  6
ByLayer
  9
$CECOLOR
 62
   256
  9
$CELTSCALE
 40
1.0
  9
$DISPSILH
 70
     0
  9
$DIMSCALE
 40
1.0
  9
$DIMASZ
 40
2.5
  9
$DIMEXO
 40
0.625
  9
$DIMDLI
 40
3.75
  9
$DIMRND
 40
0.0
  9
$DIMDLE
 40
0.0
  9
$DIMEXE
 40
1.25
  9
$DIMTP
 40
0.0
  9
$DIMTM
 40
0.0
  9
$DIMTXT
 40
2.5
  9
$DIMCEN
 40
2.5
  9
$DIMTSZ
 40
0.0
  9
$DIMTOL
 70
     0
  9
$DIMLIM
 70
     0
  9
$DIMTIH
 70
     0
  9
$DIMTOH
 70
     0
  9
$DIMSE1
 70
     0
  9
$DIMSE2
 70
     0
  9
$DIMTAD
 70
     1
  9
$DIMZIN
 70
     8
  9
$DIMBLK
  1

  9
$DIMASO
 70
     1
  9
$DIMSHO
 70
     1
  9
$DIMPOST
  1

  9
$DIMAPOST
  1

  9
$DIMALT
 70
     0
  9
$DIMALTD
 70
     3
  9
$DIMALTF
 40
0.03937007874016
  9
$DIMLFAC
 40
1.0
  9
$DIMTOFL
 70
     1
  9
$DIMTVP
 40
0.0
  9
$DIMTIX
 70
     0
  9
$DIMSOXD
 70
     0
  9
$DIMSAH
 70
     0
  9
$DIMBLK1
  1

  9
$DIMBLK2
  1

  9
$DIMSTYLE
  2
ISO-25
  9
$DIMCLRD
 70
     0
  9
$DIMCLRE
 70
     0
  9
$DIMCLRT
 70
     0
  9
$DIMTFAC
 40
1.0
  9
$DIMGAP
 40
0.625
  9
$DIMJUST
 70
     0
  9
$DIMSD1
 70
     0
  9
$DIMSD2
 70
     0
  9
$DIMTOLJ
 70
     0
  9
$DIMTZIN
 70
     8
  9
$DIMALTZ
 70
     0
  9
$DIMALTTZ
 70
     0
  9
$DIMUPT
 70
     0
  9
$DIMDEC
 70
     2
  9
$DIMTDEC
 70
     2
  9
$DIMALTU
 70
     2
  9
$DIMALTTD
 70
     3
  9
$DIMTXSTY
  7
Standard
  9
$DIMAUNIT
 70
     0
  9
$DIMADEC
 70
     0
  9
$DIMALTRND
 40
0.0
  9
$DIMAZIN
 70
     0
  9
$DIMDSEP
 70
    44
  9
$DIMATFIT
 70
     3
  9
$DIMFRAC
 70
     0
  9
$DIMLDRBLK
  1

  9
$DIMLUNIT
 70
     2
  9
$DIMLWD
 70
    -2
  9
$DIMLWE
 70
    -2
  9
$DIMTMOVE
 70
     0
  9
$LUNITS
 70
     2
  9
$LUPREC
 70
     4
  9
$SKETCHINC
 40
1.0
  9
$FILLETRAD
 40
0.0
  9
$AUNITS
 70
     0
  9
$AUPREC
 70
     0
  9
$MENU
  1
.
  9
$ELEVATION
 40
0.0
  9
$PELEVATION
 40
0.0
  9
$THICKNESS
 40
0.0
  9
$LIMCHECK
 70
     0
  9
$CHAMFERA
 40
0.0
  9
$CHAMFERB
 40
0.0
  9
$CHAMFERC
 40
0.0
  9
$CHAMFERD
 40
0.0
  9
$SKPOLY
 70
     0
  9
$TDCREATE
 40
2454862.636521991
  9
$TDUCREATE
 40
2454862.636521991
  9
$TDUPDATE
 40
2454862.647472142
  9
$TDUUPDATE
 40
2454862.647472142
  9
$TDINDWG
 40
0.0109510648
  9
$TDUSRTIMER
 40
0.0109508796
  9
$USRTIMER
 70
     1
  9
$ANGBASE
 50
0.0
  9
$ANGDIR
 70
     0
  9
$PDMODE
 70
     0
  9
$PDSIZE
 40
0.0
  9
$PLINEWID
 40
0.0
  9
$SPLFRAME
 70
     0
  9
$SPLINETYPE
 70
     6
  9
$SPLINESEGS
 70
     8
  9
$HANDSEED
  5
9A3
  9
$SURFTAB1
 70
     6
  9
$SURFTAB2
 70
     6
  9
$SURFTYPE
 70
     6
  9
$SURFU
 70
     6
  9
$SURFV
 70
     6
  9
$UCSBASE
  2

  9
$UCSNAME
  2

  9
$UCSORG
 10
0.0
 20
0.0
 30
0.0
  9
$UCSXDIR
 10
1.0
 20
0.0
 30
0.0
  9
$UCSYDIR
 10
0.0
 20
1.0
 30
0.0
  9
$UCSORTHOREF
  2

  9
$UCSORTHOVIEW
 70
     0
  9
$UCSORGTOP
 10
0.0
 20
0.0
 30
0.0
  9
$UCSORGBOTTOM
 10
0.0
 20
0.0
 30
0.0
  9
$UCSORGLEFT
 10
0.0
 20
0.0
 30
0.0
  9
$UCSORGRIGHT
 10
0.0
 20
0.0
 30
0.0
  9
$UCSORGFRONT
 10
0.0
 20
0.0
 30
0.0
  9
$UCSORGBACK
 10
0.0
 20
0.0
 30
0.0
  9
$PUCSBASE
  2

  9
$PUCSNAME
  2

  9
$PUCSORG
 10
0.0
 20
0.0
 30
0.0
  9
$PUCSXDIR
 10
1.0
 20
0.0
 30
0.0
  9
$PUCSYDIR
 10
0.0
 20
1.0
 30
0.0
  9
$PUCSORTHOREF
  2

  9
$PUCSORTHOVIEW
 70
     0
  9
$PUCSORGTOP
 10
0.0
 20
0.0
 30
0.0
  9
$PUCSORGBOTTOM
 10
0.0
 20
0.0
 30
0.0
  9
$PUCSORGLEFT
 10
0.0
 20
0.0
 30
0.0
  9
$PUCSORGRIGHT
 10
0.0
 20
0.0
 30
0.0
  9
$PUCSORGFRONT
 10
0.0
 20
0.0
 30
0.0
  9
$PUCSORGBACK
 10
0.0
 20
0.0
 30
0.0
  9
$USERI1
 70
     0
  9
$USERI2
 70
     0
  9
$USERI3
 70
     0
  9
$USERI4
 70
     0
  9
$USERI5
 70
     0
  9
$USERR1
 40
0.0
  9
$USERR2
 40
0.0
  9
$USERR3
 40
0.0
  9
$USERR4
 40
0.0
  9
$USERR5
 40
0.0
  9
$WORLDVIEW
 70
     1
  9
$SHADEDGE
 70
     3
  9
$SHADEDIF
 70
    70
  9
$TILEMODE
 70
     1
  9
$MAXACTVP
 70
    64
  9
$PINSBASE
 10
0.0
 20
0.0
 30
0.0
  9
$PLIMCHECK
 70
     0
  9
$PEXTMIN
 10
1.000000000000000E+20
 20
1.000000000000000E+20
 30
1.000000000000000E+20
  9
$PEXTMAX
 10
-1.000000000000000E+20
 20
-1.000000000000000E+20
 30
-1.000000000000000E+20
  9
$PLIMMIN
 10
0.0
 20
0.0
  9
$PLIMMAX
 10
420.0
 20
297.0
  9
$UNITMODE
 70
     0
  9
$VISRETAIN
 70
     1
  9
$PLINEGEN
 70
     0
  9
$PSLTSCALE
 70
     1
  9
$TREEDEPTH
 70
  3020
  9
$CMLSTYLE
  2
Standard
  9
$CMLJUST
 70
     0
  9
$CMLSCALE
 40
20.0
  9
$PROXYGRAPHICS
 70
     1
  9
$MEASUREMENT
 70
     1
  9
$CELWEIGHT
370
    -1
  9
$ENDCAPS
280
     0
  9
$JOINSTYLE
280
     0
  9
$LWDISPLAY
290
     0
  9
$INSUNITS
 70
     4
  9
$HYPERLINKBASE
  1

  9
$STYLESHEET
  1

  9
$XEDIT
290
     1
  9
$CEPSNTYPE
380
     0
  9
$PSTYLEMODE
290
     1
  9
$FINGERPRINTGUID
  2
{BEEEF42E-AD20-4096-BE2A-B35886A45FE4}
  9
$VERSIONGUID
  2
{ACA1C7F8-6D4D-4305-8D3D-E4CC058EA60C}
  9
$EXTNAMES
290
     1
  9
$PSVPSCALE
 40
0.0
  9
$OLESTARTUP
290
     0
  0
ENDSEC
  0
SECTION
  2
CLASSES
  0
CLASS
  1
ACDBDICTIONARYWDFLT
  2
AcDbDictionaryWithDefault
  3
ObjectDBX Classes
 90
        0
280
     0
281
     0
  0
CLASS
  1
TABLESTYLE
  2
AcDbTableStyle
  3
ObjectDBX Classes
 90
     2047
280
     0
281
     0
  0
CLASS
  1
DIMASSOC
  2
AcDbDimAssoc
  3
"AcDbDimAssoc|Product Desc:     AcDim ARX App For Dimension|Company:          Autodesk, Inc.|WEB Address:      www.autodesk.com"
 90
        0
280
     0
281
     0
  0
CLASS
  1
SORTENTSTABLE
  2
AcDbSortentsTable
  3
ObjectDBX Classes
 90
        0
280
     0
281
     0
  0
CLASS
  1
DICTIONARYVAR
  2
AcDbDictionaryVar
  3
ObjectDBX Classes
 90
        0
280
     0
281
     0
  0
CLASS
  1
ACDBPLACEHOLDER
  2
AcDbPlaceHolder
  3
ObjectDBX Classes
 90
        0
280
     0
281
     0
  0
CLASS
  1
LAYOUT
  2
AcDbLayout
  3
ObjectDBX Classes
 90
        0
280
     0
281
     0
  0
ENDSEC
  0
SECTION
  2
TABLES
  0
TABLE
  2
VPORT
  5
8
330
0
100
AcDbSymbolTable
 70
     6
  0
VPORT
  5
99B
330
8
100
AcDbSymbolTableRecord
100
AcDbViewportTableRecord
  2
*Active
 70
     0
 10
0.0
 20
0.0
 11
1.0
 21
1.0
 12
1060.550937088335
 22
904.2503525304478
 13
0.0
 23
0.0
 14
10.0
 24
10.0
 15
10.0
 25
10.0
 16
0.0
 26
0.0
 36
1.0
 17
0.0
 27
0.0
 37
0.0
 40
2.76005647226635
 41
1.602030456852792
 42
50.0
 43
0.0
 44
0.0
 50
0.0
 51
0.0
 71
     0
 72
  1000
 73
     1
 74
     3
 75
     0
 76
     0
 77
     0
 78
     0
281
     0
 65
     1
110
0.0
120
0.0
130
0.0
111
1.0
121
0.0
131
0.0
112
0.0
122
1.0
132
0.0
 79
     0
146
0.0
  0
ENDTAB
  0
TABLE
  2
LTYPE
  5
5
330
0
100
AcDbSymbolTable
 70
     3
  0
LTYPE
  5
14
330
5
100
AcDbSymbolTableRecord
100
AcDbLinetypeTableRecord
  2
ByBlock
 70
     0
  3

 72
    65
 73
     0
 40
0.0
  0
LTYPE
  5
15
330
5
100
AcDbSymbolTableRecord
100
AcDbLinetypeTableRecord
  2
ByLayer
 70
     0
  3

 72
    65
 73
     0
 40
0.0
  0
LTYPE
  5
16
330
5
100
AcDbSymbolTableRecord
100
AcDbLinetypeTableRecord
  2
Continuous
 70
     0
  3
Solid line
 72
    65
 73
     0
 40
0.0
  0
LTYPE
  5
204
330
5
100
AcDbSymbolTableRecord
100
AcDbLinetypeTableRecord
  2
DASHDOT
 70
     0
  3
Dash dot __ . __ . __ . __ . __ . __ . __ . __
 72
    65
 73
     4
 40
25.4
 49
12.7
 74
     0
 49
-6.349999999999999
 74
     0
 49
0.0
 74
     0
 49
-6.349999999999999
 74
     0
  0
LTYPE
  5
205
330
5
100
AcDbSymbolTableRecord
100
AcDbLinetypeTableRecord
  2
HIDDEN
 70
     0
  3
Hidden __ __ __ __ __ __ __ __ __ __ __ __ __ _
 72
    65
 73
     2
 40
9.524999999999998
 49
6.349999999999999
 74
     0
 49
-3.174999999999999
 74
     0
  0
ENDTAB
  0
TABLE
  2
LAYER
  5
2
330
0
100
AcDbSymbolTable
 70
    10
  0
LAYER
  5
10
330
2
100
AcDbSymbolTableRecord
100
AcDbLayerTableRecord
  2
0
 70
     0
 62
     7
  6
Continuous
370
    -3
390
F
  0
LAYER
  5
206
330
2
100
AcDbSymbolTableRecord
100
AcDbLayerTableRecord
  2
2
 70
     0
 62
     2
  6
Continuous
370
    -3
390
F
  0
LAYER
  5
207
330
2
100
AcDbSymbolTableRecord
100
AcDbLayerTableRecord
  2
4
 70
     0
 62
     4
  6
Continuous
370
    -3
390
F
  0
LAYER
  5
208
330
2
100
AcDbSymbolTableRecord
100
AcDbLayerTableRecord
  2
cen
 70
     0
 62
     7
  6
DASHDOT
370
    -3
390
F
  0
LAYER
  5
209
330
2
100
AcDbSymbolTableRecord
100
AcDbLayerTableRecord
  2
hid
 70
     0
 62
     9
  6
HIDDEN
370
    -3
390
F
  0
LAYER
  5
20A
330
2
100
AcDbSymbolTableRecord
100
AcDbLayerTableRecord
  2
hatch
 70
     0
 62
     9
  6
Continuous
370
    -3
390
F
  0
LAYER
  5
20B
330
2
100
AcDbSymbolTableRecord
100
AcDbLayerTableRecord
  2
9
 70
     0
 62
     9
  6
Continuous
370
    -3
390
F
  0
LAYER
  5
20C
330
2
100
AcDbSymbolTableRecord
100
AcDbLayerTableRecord
  2
cotas
 70
     0
 62
     1
  6
Continuous
370
    -3
390
F
  0
LAYER
  5
20D
330
2
100
AcDbSymbolTableRecord
100
AcDbLayerTableRecord
  2
Defpoints
 70
     0
 62
     7
  6
Continuous
290
     0
370
    -3
390
F
  0
LAYER
  5
20E
330
2
100
AcDbSymbolTableRecord
100
AcDbLayerTableRecord
  2
SANINDUSA
 70
     0
 62
     3
  6
Continuous
370
    -3
390
F
  0
ENDTAB
  0
TABLE
  2
STYLE
  5
3
330
0
100
AcDbSymbolTable
 70
     2
  0
STYLE
  5
11
330
3
100
AcDbSymbolTableRecord
100
AcDbTextStyleTableRecord
  2
Standard
 70
     0
 40
0.0
 41
1.0
 50
0.0
 71
     0
 42
2.5
  3
txt
  4

  0
STYLE
  5
20F
330
3
100
AcDbSymbolTableRecord
100
AcDbTextStyleTableRecord
  2
SANINDUSA
 70
     0
 40
0.0
 41
1.0
 50
0.0
 71
     0
 42
2.5
  3
verdana.TTF
  4

1001
ACAD
1000
Verdana
1071
       34
  0
ENDTAB
  0
TABLE
  2
VIEW
  5
6
330
0
100
AcDbSymbolTable
 70
     0
  0
ENDTAB
  0
TABLE
  2
UCS
  5
7
330
0
100
AcDbSymbolTable
 70
     0
  0
ENDTAB
  0
TABLE
  2
APPID
  5
9
330
0
100
AcDbSymbolTable
 70
     1
  0
APPID
  5
12
330
9
100
AcDbSymbolTableRecord
100
AcDbRegAppTableRecord
  2
ACAD
 70
     0
  0
ENDTAB
  0
TABLE
  2
DIMSTYLE
  5
A
330
0
100
AcDbSymbolTable
 70
     2
100
AcDbDimStyleTable
 71
     0
  0
DIMSTYLE
105
2B
330
A
100
AcDbSymbolTableRecord
100
AcDbDimStyleTableRecord
  2
ISO-25
 70
     0
 41
2.5
 42
0.625
 43
3.75
 44
1.25
 73
     0
 74
     0
 77
     1
 78
     8
140
2.5
141
2.5
143
0.03937007874016
147
0.625
171
     3
172
     1
271
     2
272
     2
274
     3
278
    44
283
     0
284
     8
340
11
  0
DIMSTYLE
105
210
102
{ACAD_REACTORS
330
2AA
330
2AD
330
2AE
330
2B1
330
2B4
330
2B5
330
2B6
330
2B9
330
2BC
330
2BF
330
2C2
330
2C3
330
2C6
330
2C9
330
2CC
330
2CF
330
2D2
330
2D5
330
2D8
330
2DB
330
2DE
330
2E1
330
2E4
330
2E7
330
2E8
330
2FC
330
2FD
330
2FE
330
301
330
302
330
303
330
306
330
30B
330
314
330
316
330
317
330
320
330
323
330
324
330
325
330
328
330
329
330
32A
330
32B
102
}
330
A
100
AcDbSymbolTableRecord
100
AcDbDimStyleTableRecord
  2
SANINDUSA
 70
     0
 41
2.0
 42
1.0
 43
1.0
 44
1.0
 73
     0
 74
     0
 77
     1
 78
     8
140
2.0
141
0.0
143
0.03937007874016
147
1.0
171
     3
172
     1
176
   256
177
   256
178
   256
179
     1
271
     1
272
     1
274
     3
278
    44
283
     0
284
     8
340
20F
371
    -1
372
    -1
  0
ENDTAB
  0
TABLE
  2
BLOCK_RECORD
  5
1
330
0
100
AcDbSymbolTable
 70
    90
  0
BLOCK_RECORD
  5
23
330
1
100
AcDbSymbolTableRecord
100
AcDbBlockTableRecord
  2
*Model_Space
340
26
  0
BLOCK_RECORD
  5
1F
330
1
100
AcDbSymbolTableRecord
100
AcDbBlockTableRecord
  2
*Paper_Space
340
22
  0
BLOCK_RECORD
  5
27
330
1
100
AcDbSymbolTableRecord
100
AcDbBlockTableRecord
  2
*Paper_Space0
340
2A
  0
BLOCK_RECORD
  5
2F
330
1
100
AcDbSymbolTableRecord
100
AcDbBlockTableRecord
  2
*D1
340
0
  0
BLOCK_RECORD
  5
3B
330
1
100
AcDbSymbolTableRecord
100
AcDbBlockTableRecord
  2
*D2
340
0
  0
BLOCK_RECORD
  5
47
330
1
100
AcDbSymbolTableRecord
100
AcDbBlockTableRecord
  2
*D3
340
0
  0
BLOCK_RECORD
  5
53
330
1
100
AcDbSymbolTableRecord
100
AcDbBlockTableRecord
  2
*D4
340
0
  0
BLOCK_RECORD
  5
5F
330
1
100
AcDbSymbolTableRecord
100
AcDbBlockTableRecord
  2
*D5
340
0
  0
BLOCK_RECORD
  5
6A
330
1
100
AcDbSymbolTableRecord
100
AcDbBlockTableRecord
  2
*D6
340
0
  0
BLOCK_RECORD
  5
76
330
1
100
AcDbSymbolTableRecord
100
AcDbBlockTableRecord
  2
*D7
340
0
  0
BLOCK_RECORD
  5
82
330
1
100
AcDbSymbolTableRecord
100
AcDbBlockTableRecord
  2
*D8
340
0
  0
BLOCK_RECORD
  5
8E
330
1
100
AcDbSymbolTableRecord
100
AcDbBlockTableRecord
  2
*D9
340
0
  0
BLOCK_RECORD
  5
9A
330
1
100
AcDbSymbolTableRecord
100
AcDbBlockTableRecord
  2
*D10
340
0
  0
BLOCK_RECORD
  5
A6
330
1
100
AcDbSymbolTableRecord
100
AcDbBlockTableRecord
  2
*D11
340
0
  0
BLOCK_RECORD
  5
B2
330
1
100
AcDbSymbolTableRecord
100
AcDbBlockTableRecord
  2
*D12
340
0
  0
BLOCK_RECORD
  5
BA
330
1
100
AcDbSymbolTableRecord
100
AcDbBlockTableRecord
  2
*D13
340
0
  0
BLOCK_RECORD
  5
C2
330
1
100
AcDbSymbolTableRecord
100
AcDbBlockTableRecord
  2
*D14
340
0
  0
BLOCK_RECORD
  5
CA
330
1
100
AcDbSymbolTableRecord
100
AcDbBlockTableRecord
  2
*D15
340
0
  0
BLOCK_RECORD
  5
D2
330
1
100
AcDbSymbolTableRecord
100
AcDbBlockTableRecord
  2
*D16
340
0
  0
BLOCK_RECORD
  5
DE
330
1
100
AcDbSymbolTableRecord
100
AcDbBlockTableRecord
  2
*D17
340
0
  0
BLOCK_RECORD
  5
EA
330
1
100
AcDbSymbolTableRecord
100
AcDbBlockTableRecord
  2
*D18
340
0
  0
BLOCK_RECORD
  5
F2
330
1
100
AcDbSymbolTableRecord
100
AcDbBlockTableRecord
  2
*D19
340
0
  0
BLOCK_RECORD
  5
FA
330
1
100
AcDbSymbolTableRecord
100
AcDbBlockTableRecord
  2
*D20
340
0
  0
BLOCK_RECORD
  5
103
330
1
100
AcDbSymbolTableRecord
100
AcDbBlockTableRecord
  2
*D21
340
0
  0
BLOCK_RECORD
  5
10C
330
1
100
AcDbSymbolTableRecord
100
AcDbBlockTableRecord
  2
*D22
340
0
  0
BLOCK_RECORD
  5
118
330
1
100
AcDbSymbolTableRecord
100
AcDbBlockTableRecord
  2
*D23
340
0
  0
BLOCK_RECORD
  5
124
330
1
100
AcDbSymbolTableRecord
100
AcDbBlockTableRecord
  2
*D24
340
0
  0
BLOCK_RECORD
  5
12D
330
1
100
AcDbSymbolTableRecord
100
AcDbBlockTableRecord
  2
*D25
340
0
  0
BLOCK_RECORD
  5
136
330
1
100
AcDbSymbolTableRecord
100
AcDbBlockTableRecord
  2
*D26
340
0
  0
BLOCK_RECORD
  5
13E
330
1
100
AcDbSymbolTableRecord
100
AcDbBlockTableRecord
  2
*D27
340
0
  0
BLOCK_RECORD
  5
14C
330
1
100
AcDbSymbolTableRecord
100
AcDbBlockTableRecord
  2
*D28
340
0
  0
BLOCK_RECORD
  5
158
330
1
100
AcDbSymbolTableRecord
100
AcDbBlockTableRecord
  2
*D29
340
0
  0
BLOCK_RECORD
  5
164
330
1
100
AcDbSymbolTableRecord
100
AcDbBlockTableRecord
  2
*D30
340
0
  0
BLOCK_RECORD
  5
16D
330
1
100
AcDbSymbolTableRecord
100
AcDbBlockTableRecord
  2
*D31
340
0
  0
BLOCK_RECORD
  5
179
330
1
100
AcDbSymbolTableRecord
100
AcDbBlockTableRecord
  2
*D32
340
0
  0
BLOCK_RECORD
  5
185
330
1
100
AcDbSymbolTableRecord
100
AcDbBlockTableRecord
  2
*D33
340
0
  0
BLOCK_RECORD
  5
191
330
1
100
AcDbSymbolTableRecord
100
AcDbBlockTableRecord
  2
*D34
340
0
  0
BLOCK_RECORD
  5
19D
330
1
100
AcDbSymbolTableRecord
100
AcDbBlockTableRecord
  2
*D35
340
0
  0
BLOCK_RECORD
  5
1A9
330
1
100
AcDbSymbolTableRecord
100
AcDbBlockTableRecord
  2
*D36
340
0
  0
BLOCK_RECORD
  5
1B5
330
1
100
AcDbSymbolTableRecord
100
AcDbBlockTableRecord
  2
*D37
340
0
  0
BLOCK_RECORD
  5
1C1
330
1
100
AcDbSymbolTableRecord
100
AcDbBlockTableRecord
  2
*D38
340
0
  0
BLOCK_RECORD
  5
1CC
330
1
100
AcDbSymbolTableRecord
100
AcDbBlockTableRecord
  2
*D39
340
0
  0
BLOCK_RECORD
  5
1D5
330
1
100
AcDbSymbolTableRecord
100
AcDbBlockTableRecord
  2
*D40
340
0
  0
BLOCK_RECORD
  5
1DE
330
1
100
AcDbSymbolTableRecord
100
AcDbBlockTableRecord
  2
*D41
340
0
  0
BLOCK_RECORD
  5
1E6
330
1
100
AcDbSymbolTableRecord
100
AcDbBlockTableRecord
  2
*D42
340
0
  0
BLOCK_RECORD
  5
1F2
330
1
100
AcDbSymbolTableRecord
100
AcDbBlockTableRecord
  2
*D43
340
0
  0
BLOCK_RECORD
  5
1FB
330
1
100
AcDbSymbolTableRecord
100
AcDbBlockTableRecord
  2
*D44
340
0
  0
BLOCK_RECORD
  5
6D6
330
1
100
AcDbSymbolTableRecord
100
AcDbBlockTableRecord
  2
*D46
340
0
  0
BLOCK_RECORD
  5
6E2
330
1
100
AcDbSymbolTableRecord
100
AcDbBlockTableRecord
  2
*D47
340
0
  0
BLOCK_RECORD
  5
6ED
330
1
100
AcDbSymbolTableRecord
100
AcDbBlockTableRecord
  2
*D48
340
0
  0
BLOCK_RECORD
  5
6F9
330
1
100
AcDbSymbolTableRecord
100
AcDbBlockTableRecord
  2
*D49
340
0
  0
BLOCK_RECORD
  5
705
330
1
100
AcDbSymbolTableRecord
100
AcDbBlockTableRecord
  2
*D50
340
0
  0
BLOCK_RECORD
  5
70E
330
1
100
AcDbSymbolTableRecord
100
AcDbBlockTableRecord
  2
*D51
340
0
  0
BLOCK_RECORD
  5
717
330
1
100
AcDbSymbolTableRecord
100
AcDbBlockTableRecord
  2
*D52
340
0
  0
BLOCK_RECORD
  5
71F
330
1
100
AcDbSymbolTableRecord
100
AcDbBlockTableRecord
  2
*D53
340
0
  0
BLOCK_RECORD
  5
72D
330
1
100
AcDbSymbolTableRecord
100
AcDbBlockTableRecord
  2
*D54
340
0
  0
BLOCK_RECORD
  5
739
330
1
100
AcDbSymbolTableRecord
100
AcDbBlockTableRecord
  2
*D55
340
0
  0
BLOCK_RECORD
  5
742
330
1
100
AcDbSymbolTableRecord
100
AcDbBlockTableRecord
  2
*D56
340
0
  0
BLOCK_RECORD
  5
74E
330
1
100
AcDbSymbolTableRecord
100
AcDbBlockTableRecord
  2
*D57
340
0
  0
BLOCK_RECORD
  5
75A
330
1
100
AcDbSymbolTableRecord
100
AcDbBlockTableRecord
  2
*D58
340
0
  0
BLOCK_RECORD
  5
766
330
1
100
AcDbSymbolTableRecord
100
AcDbBlockTableRecord
  2
*D59
340
0
  0
BLOCK_RECORD
  5
772
330
1
100
AcDbSymbolTableRecord
100
AcDbBlockTableRecord
  2
*D60
340
0
  0
BLOCK_RECORD
  5
77E
330
1
100
AcDbSymbolTableRecord
100
AcDbBlockTableRecord
  2
*D61
340
0
  0
BLOCK_RECORD
  5
789
330
1
100
AcDbSymbolTableRecord
100
AcDbBlockTableRecord
  2
*D62
340
0
  0
BLOCK_RECORD
  5
792
330
1
100
AcDbSymbolTableRecord
100
AcDbBlockTableRecord
  2
*D63
340
0
  0
BLOCK_RECORD
  5
79B
330
1
100
AcDbSymbolTableRecord
100
AcDbBlockTableRecord
  2
*D64
340
0
  0
BLOCK_RECORD
  5
7A3
330
1
100
AcDbSymbolTableRecord
100
AcDbBlockTableRecord
  2
*D65
340
0
  0
BLOCK_RECORD
  5
7AF
330
1
100
AcDbSymbolTableRecord
100
AcDbBlockTableRecord
  2
*D66
340
0
  0
BLOCK_RECORD
  5
7B8
330
1
100
AcDbSymbolTableRecord
100
AcDbBlockTableRecord
  2
*D67
340
0
  0
BLOCK_RECORD
  5
7C1
330
1
100
AcDbSymbolTableRecord
100
AcDbBlockTableRecord
  2
*D68
340
0
  0
BLOCK_RECORD
  5
7D6
330
1
100
AcDbSymbolTableRecord
100
AcDbBlockTableRecord
  2
*D69
340
0
  0
BLOCK_RECORD
  5
7E2
330
1
100
AcDbSymbolTableRecord
100
AcDbBlockTableRecord
  2
*D70
340
0
  0
BLOCK_RECORD
  5
7FF
330
1
100
AcDbSymbolTableRecord
100
AcDbBlockTableRecord
  2
*D71
340
0
  0
BLOCK_RECORD
  5
80B
330
1
100
AcDbSymbolTableRecord
100
AcDbBlockTableRecord
  2
*D72
340
0
  0
BLOCK_RECORD
  5
817
330
1
100
AcDbSymbolTableRecord
100
AcDbBlockTableRecord
  2
*D73
340
0
  0
BLOCK_RECORD
  5
823
330
1
100
AcDbSymbolTableRecord
100
AcDbBlockTableRecord
  2
*D74
340
0
  0
BLOCK_RECORD
  5
838
330
1
100
AcDbSymbolTableRecord
100
AcDbBlockTableRecord
  2
*D75
340
0
  0
BLOCK_RECORD
  5
840
330
1
100
AcDbSymbolTableRecord
100
AcDbBlockTableRecord
  2
*D76
340
0
  0
BLOCK_RECORD
  5
848
330
1
100
AcDbSymbolTableRecord
100
AcDbBlockTableRecord
  2
*D77
340
0
  0
BLOCK_RECORD
  5
850
330
1
100
AcDbSymbolTableRecord
100
AcDbBlockTableRecord
  2
*D78
340
0
  0
BLOCK_RECORD
  5
858
330
1
100
AcDbSymbolTableRecord
100
AcDbBlockTableRecord
  2
*D79
340
0
  0
BLOCK_RECORD
  5
864
330
1
100
AcDbSymbolTableRecord
100
AcDbBlockTableRecord
  2
*D80
340
0
  0
BLOCK_RECORD
  5
870
330
1
100
AcDbSymbolTableRecord
100
AcDbBlockTableRecord
  2
*D81
340
0
  0
BLOCK_RECORD
  5
878
330
1
100
AcDbSymbolTableRecord
100
AcDbBlockTableRecord
  2
*D82
340
0
  0
BLOCK_RECORD
  5
880
330
1
100
AcDbSymbolTableRecord
100
AcDbBlockTableRecord
  2
*D83
340
0
  0
BLOCK_RECORD
  5
889
330
1
100
AcDbSymbolTableRecord
100
AcDbBlockTableRecord
  2
*D84
340
0
  0
BLOCK_RECORD
  5
892
330
1
100
AcDbSymbolTableRecord
100
AcDbBlockTableRecord
  2
*D85
340
0
  0
BLOCK_RECORD
  5
89E
330
1
100
AcDbSymbolTableRecord
100
AcDbBlockTableRecord
  2
*D86
340
0
  0
BLOCK_RECORD
  5
8C6
330
1
100
AcDbSymbolTableRecord
100
AcDbBlockTableRecord
  2
*D87
340
0
  0
BLOCK_RECORD
  5
8E1
330
1
100
AcDbSymbolTableRecord
100
AcDbBlockTableRecord
  2
*D88
340
0
  0
BLOCK_RECORD
  5
91A
330
1
100
AcDbSymbolTableRecord
100
AcDbBlockTableRecord
  2
*D89
340
0
  0
ENDTAB
  0
ENDSEC
  0
SECTION
  2
BLOCKS
  0
BLOCK
  5
24
330
23
100
AcDbEntity
  8
0
100
AcDbBlockBegin
  2
*Model_Space
 70
     0
 10
0.0
 20
0.0
 30
0.0
  3
*Model_Space
  1

  0
ENDBLK
  5
25
330
23
100
AcDbEntity
  8
0
100
AcDbBlockEnd
  0
BLOCK
  5
20
330
1F
100
AcDbEntity
 67
     1
  8
0
100
AcDbBlockBegin
  2
*Paper_Space
 70
     0
 10
0.0
 20
0.0
 30
0.0
  3
*Paper_Space
  1

  0
ENDBLK
  5
21
330
1F
100
AcDbEntity
 67
     1
  8
0
100
AcDbBlockEnd
  0
BLOCK
  5
28
330
27
100
AcDbEntity
 67
     1
  8
0
100
AcDbBlockBegin
  2
*Paper_Space0
 70
     0
 10
0.0
 20
0.0
 30
0.0
  3
*Paper_Space0
  1

  0
ENDBLK
  5
29
330
27
100
AcDbEntity
 67
     1
  8
0
100
AcDbBlockEnd
  0
BLOCK
  5
30
330
2F
100
AcDbEntity
  8
0
 62
     9
100
AcDbBlockBegin
  2
*D1
 70
     1
 10
0.0
 20
0.0
 30
0.0
  3
*D1
  1

  0
LINE
  5
31
330
2F
100
AcDbEntity
  8
cotas
100
AcDbLine
 10
6726.041695159651
 20
-1752.782400840398
 30
0.0
 11
6726.041695159651
 21
-1818.338343305527
 31
0.0
  0
LINE
  5
32
330
2F
100
AcDbEntity
  8
cotas
100
AcDbLine
 10
6846.041879124652
 20
-1752.797978998805
 30
0.0
 11
6846.041879124652
 21
-1818.338343305527
 31
0.0
  0
LINE
  5
33
330
2F
100
AcDbEntity
  8
cotas
100
AcDbLine
 10
6736.041695159652
 20
-1813.338343305527
 30
0.0
 11
6836.041879124651
 21
-1813.338343305527
 31
0.0
  0
SOLID
  5
34
330
2F
100
AcDbEntity
  8
cotas
100
AcDbTrace
 10
6736.041695159652
 20
-1811.67167663886
 30
0.0
 11
6736.041695159652
 21
-1815.005009972194
 31
0.0
 12
6726.041695159651
 22
-1813.338343305527
 32
0.0
 13
6726.041695159651
 23
-1813.338343305527
 33
0.0
  0
SOLID
  5
35
330
2F
100
AcDbEntity
  8
cotas
100
AcDbTrace
 10
6836.041879124651
 20
-1811.67167663886
 30
0.0
 11
6836.041879124651
 21
-1815.005009972194
 31
0.0
 12
6846.041879124652
 22
-1813.338343305527
 32
0.0
 13
6846.041879124652
 23
-1813.338343305527
 33
0.0
  0
MTEXT
  5
36
330
2F
100
AcDbEntity
  8
cotas
100
AcDbMText
 10
6786.059159901319
 20
-1803.130149887125
 30
0.0
 40
10.0
 41
0.0
 71
     5
 72
     1
  1
120
  7
SANINDUSA
 73
     1
 44
1.0
1001
ACAD
1000
MTEXTBEGIN
1070
    73
1070
     1
1070
    44
1040
1.0
1070
    74
1070
     0
1000
MTEXTEND
  0
POINT
  5
37
330
2F
100
AcDbEntity
  8
Defpoints
 62
     0
100
AcDbPoint
 10
6726.041695159651
 20
-1747.782400840398
 30
0.0
  0
POINT
  5
38
330
2F
100
AcDbEntity
  8
Defpoints
 62
     0
100
AcDbPoint
 10
6846.041879124652
 20
-1747.797978998805
 30
0.0
  0
POINT
  5
39
330
2F
100
AcDbEntity
  8
Defpoints
 62
     0
100
AcDbPoint
 10
6846.041879124652
 20
-1813.338343305527
 30
0.0
  0
ENDBLK
  5
3A
330
2F
100
AcDbEntity
  8
0
 62
     9
100
AcDbBlockEnd
  0
BLOCK
  5
3C
330
3B
100
AcDbEntity
  8
0
 62
     9
100
AcDbBlockBegin
  2
*D2
 70
     1
 10
0.0
 20
0.0
 30
0.0
  3
*D2
  1

  0
LINE
  5
3D
330
3B
100
AcDbEntity
  8
cotas
100
AcDbLine
 10
6726.041695159651
 20
-1752.782400840398
 30
0.0
 11
6726.041695159651
 21
-1818.338343305527
 31
0.0
  0
LINE
  5
3E
330
3B
100
AcDbEntity
  8
cotas
100
AcDbLine
 10
5961.041879124652
 20
-1752.797978998805
 30
0.0
 11
5961.041879124652
 21
-1818.338343305527
 31
0.0
  0
LINE
  5
3F
330
3B
100
AcDbEntity
  8
cotas
100
AcDbLine
 10
6716.041695159652
 20
-1813.338343305527
 30
0.0
 11
5971.041879124652
 21
-1813.338343305527
 31
0.0
  0
SOLID
  5
40
330
3B
100
AcDbEntity
  8
cotas
100
AcDbTrace
 10
6716.041695159652
 20
-1811.67167663886
 30
0.0
 11
6716.041695159652
 21
-1815.005009972194
 31
0.0
 12
6726.041695159651
 22
-1813.338343305527
 32
0.0
 13
6726.041695159651
 23
-1813.338343305527
 33
0.0
  0
SOLID
  5
41
330
3B
100
AcDbEntity
  8
cotas
100
AcDbTrace
 10
5971.041879124652
 20
-1811.67167663886
 30
0.0
 11
5971.041879124652
 21
-1815.005009972194
 31
0.0
 12
5961.041879124652
 22
-1813.338343305527
 32
0.0
 13
5961.041879124652
 23
-1813.338343305527
 33
0.0
  0
MTEXT
  5
42
330
3B
100
AcDbEntity
  8
cotas
100
AcDbMText
 10
6343.541787142153
 20
-1803.140223762209
 30
0.0
 40
10.0
 41
0.0
 71
     5
 72
     1
  1
765
  7
SANINDUSA
 73
     1
 44
1.0
1001
ACAD
1000
MTEXTBEGIN
1070
    73
1070
     1
1070
    44
1040
1.0
1070
    74
1070
     0
1000
MTEXTEND
  0
POINT
  5
43
330
3B
100
AcDbEntity
  8
Defpoints
 62
     0
100
AcDbPoint
 10
6726.041695159651
 20
-1747.782400840398
 30
0.0
  0
POINT
  5
44
330
3B
100
AcDbEntity
  8
Defpoints
 62
     0
100
AcDbPoint
 10
5961.041879124652
 20
-1747.797978998805
 30
0.0
  0
POINT
  5
45
330
3B
100
AcDbEntity
  8
Defpoints
 62
     0
100
AcDbPoint
 10
5961.041879124652
 20
-1813.338343305527
 30
0.0
  0
ENDBLK
  5
46
330
3B
100
AcDbEntity
  8
0
 62
     9
100
AcDbBlockEnd
  0
BLOCK
  5
48
330
47
100
AcDbEntity
  8
0
 62
     9
100
AcDbBlockBegin
  2
*D3
 70
     1
 10
0.0
 20
0.0
 30
0.0
  3
*D3
  1

  0
LINE
  5
49
330
47
100
AcDbEntity
  8
cotas
100
AcDbLine
 10
5841.041879124652
 20
-1763.338343305527
 30
0.0
 11
5841.041879124652
 21
-1818.338343305527
 31
0.0
  0
LINE
  5
4A
330
47
100
AcDbEntity
  8
cotas
100
AcDbLine
 10
5961.040168369615
 20
-1752.926492370083
 30
0.0
 11
5961.040168369615
 21
-1818.338343305527
 31
0.0
  0
LINE
  5
4B
330
47
100
AcDbEntity
  8
cotas
100
AcDbLine
 10
5851.041879124653
 20
-1813.338343305527
 30
0.0
 11
5951.040168369615
 21
-1813.338343305527
 31
0.0
  0
SOLID
  5
4C
330
47
100
AcDbEntity
  8
cotas
100
AcDbTrace
 10
5851.041879124653
 20
-1811.67167663886
 30
0.0
 11
5851.041879124653
 21
-1815.005009972194
 31
0.0
 12
5841.041879124652
 22
-1813.338343305527
 32
0.0
 13
5841.041879124652
 23
-1813.338343305527
 33
0.0
  0
SOLID
  5
4D
330
47
100
AcDbEntity
  8
cotas
100
AcDbTrace
 10
5951.040168369615
 20
-1811.67167663886
 30
0.0
 11
5951.040168369615
 21
-1815.005009972194
 31
0.0
 12
5961.040168369615
 22
-1813.338343305527
 32
0.0
 13
5961.040168369615
 23
-1813.338343305527
 33
0.0
  0
MTEXT
  5
4E
330
47
100
AcDbEntity
  8
cotas
100
AcDbMText
 10
5901.041023747134
 20
-1803.130149887125
 30
0.0
 40
10.0
 41
0.0
 71
     5
 72
     1
  1
120
  7
SANINDUSA
 73
     1
 44
1.0
1001
ACAD
1000
MTEXTBEGIN
1070
    73
1070
     1
1070
    44
1040
1.0
1070
    74
1070
     0
1000
MTEXTEND
  0
POINT
  5
4F
330
47
100
AcDbEntity
  8
Defpoints
 62
     0
100
AcDbPoint
 10
5841.041879124652
 20
-1758.338343305527
 30
0.0
  0
POINT
  5
50
330
47
100
AcDbEntity
  8
Defpoints
 62
     0
100
AcDbPoint
 10
5961.040168369615
 20
-1747.926492370083
 30
0.0
  0
POINT
  5
51
330
47
100
AcDbEntity
  8
Defpoints
 62
     0
100
AcDbPoint
 10
5961.040168369615
 20
-1813.338343305527
 30
0.0
  0
ENDBLK
  5
52
330
47
100
AcDbEntity
  8
0
 62
     9
100
AcDbBlockEnd
  0
BLOCK
  5
54
330
53
100
AcDbEntity
  8
0
 62
     9
100
AcDbBlockBegin
  2
*D4
 70
     1
 10
0.0
 20
0.0
 30
0.0
  3
*D4
  1

  0
LINE
  5
55
330
53
100
AcDbEntity
  8
cotas
100
AcDbLine
 10
5961.582243431374
 20
-1753.338343305527
 30
0.0
 11
5811.041879124653
 21
-1753.338343305527
 31
0.0
  0
LINE
  5
56
330
53
100
AcDbEntity
  8
cotas
100
AcDbLine
 10
5961.582244813783
 20
-1788.338343305527
 30
0.0
 11
5811.041879124653
 21
-1788.338343305527
 31
0.0
  0
LINE
  5
57
330
53
100
AcDbEntity
  8
cotas
100
AcDbLine
 10
5816.041879124653
 20
-1763.338343305527
 30
0.0
 11
5816.041879124653
 21
-1778.338343305527
 31
0.0
  0
SOLID
  5
58
330
53
100
AcDbEntity
  8
cotas
100
AcDbTrace
 10
5814.375212457986
 20
-1763.338343305527
 30
0.0
 11
5817.70854579132
 21
-1763.338343305527
 31
0.0
 12
5816.041879124653
 22
-1753.338343305527
 32
0.0
 13
5816.041879124653
 23
-1753.338343305527
 33
0.0
  0
SOLID
  5
59
330
53
100
AcDbEntity
  8
cotas
100
AcDbTrace
 10
5814.375212457986
 20
-1778.338343305527
 30
0.0
 11
5817.70854579132
 21
-1778.338343305527
 31
0.0
 12
5816.041879124653
 22
-1788.338343305527
 32
0.0
 13
5816.041879124653
 23
-1788.338343305527
 33
0.0
  0
MTEXT
  5
5A
330
53
100
AcDbEntity
  8
cotas
100
AcDbMText
 10
5805.833685706251
 20
-1770.838343305526
 30
0.0
 40
10.0
 41
0.0
 71
     5
 72
     1
  1
35
  7
SANINDUSA
 11
0.0000000000000001
 21
1.0
 31
0.0
 73
     1
 44
1.0
1001
ACAD
1000
MTEXTBEGIN
1070
    73
1070
     1
1070
    44
1040
1.0
1070
    74
1070
     0
1000
MTEXTEND
  0
POINT
  5
5B
330
53
100
AcDbEntity
  8
Defpoints
 62
     0
100
AcDbPoint
 10
5966.582243431374
 20
-1753.338343305527
 30
0.0
  0
POINT
  5
5C
330
53
100
AcDbEntity
  8
Defpoints
 62
     0
100
AcDbPoint
 10
5966.582244813782
 20
-1788.338343305527
 30
0.0
  0
POINT
  5
5D
330
53
100
AcDbEntity
  8
Defpoints
 62
     0
100
AcDbPoint
 10
5816.041879124653
 20
-1788.338343305527
 30
0.0
  0
ENDBLK
  5
5E
330
53
100
AcDbEntity
  8
0
 62
     9
100
AcDbBlockEnd
  0
BLOCK
  5
60
330
5F
100
AcDbEntity
  8
0
 62
     9
100
AcDbBlockBegin
  2
*D5
 70
     1
 10
0.0
 20
0.0
 30
0.0
  3
*D5
  1

  0
LINE
  5
61
330
5F
100
AcDbEntity
  8
cotas
100
AcDbLine
 10
5961.597826156097
 20
-1753.33813454253
 30
0.0
 11
5811.041879124653
 21
-1753.33813454253
 31
0.0
  0
LINE
  5
62
330
5F
100
AcDbEntity
  8
cotas
100
AcDbLine
 10
5816.041879124653
 20
-1498.338343305527
 30
0.0
 11
5816.041879124653
 21
-1743.33813454253
 31
0.0
  0
SOLID
  5
63
330
5F
100
AcDbEntity
  8
cotas
100
AcDbTrace
 10
5814.375212457986
 20
-1498.338343305527
 30
0.0
 11
5817.70854579132
 21
-1498.338343305527
 31
0.0
 12
5816.041879124653
 22
-1488.338343305527
 32
0.0
 13
5816.041879124653
 23
-1488.338343305527
 33
0.0
  0
SOLID
  5
64
330
5F
100
AcDbEntity
  8
cotas
100
AcDbTrace
 10
5814.375212457986
 20
-1743.33813454253
 30
0.0
 11
5817.70854579132
 21
-1743.33813454253
 31
0.0
 12
5816.041879124653
 22
-1753.33813454253
 32
0.0
 13
5816.041879124653
 23
-1753.33813454253
 33
0.0
  0
MTEXT
  5
65
330
5F
100
AcDbEntity
  8
cotas
100
AcDbMText
 10
5805.833685706251
 20
-1638.338343305525
 30
0.0
 40
10.0
 41
0.0
 71
     5
 72
     1
  1
265
  7
SANINDUSA
 11
0.0000000000000001
 21
1.0
 31
0.0
 73
     1
 44
1.0
1001
ACAD
1000
MTEXTBEGIN
1070
    73
1070
     1
1070
    44
1040
1.0
1070
    74
1070
     0
1000
MTEXTEND
  0
POINT
  5
66
330
5F
100
AcDbEntity
  8
Defpoints
 62
     0
100
AcDbPoint
 10
5816.041879124653
 20
-1488.338343305527
 30
0.0
  0
POINT
  5
67
330
5F
100
AcDbEntity
  8
Defpoints
 62
     0
100
AcDbPoint
 10
5966.597826156096
 20
-1753.33813454253
 30
0.0
  0
POINT
  5
68
330
5F
100
AcDbEntity
  8
Defpoints
 62
     0
100
AcDbPoint
 10
5816.041879124653
 20
-1753.33813454253
 30
0.0
  0
ENDBLK
  5
69
330
5F
100
AcDbEntity
  8
0
 62
     9
100
AcDbBlockEnd
  0
BLOCK
  5
6B
330
6A
100
AcDbEntity
  8
0
 62
     9
100
AcDbBlockBegin
  2
*D6
 70
     1
 10
0.0
 20
0.0
 30
0.0
  3
*D6
  1

  0
LINE
  5
6C
330
6A
100
AcDbEntity
  8
cotas
100
AcDbLine
 10
5961.597826156097
 20
-1523.338552068524
 30
0.0
 11
5811.041879124653
 21
-1523.338552068524
 31
0.0
  0
LINE
  5
6D
330
6A
100
AcDbEntity
  8
cotas
100
AcDbLine
 10
5866.041879124654
 20
-1488.338343305527
 30
0.0
 11
5811.041879124653
 21
-1488.338343305527
 31
0.0
  0
LINE
  5
6E
330
6A
100
AcDbEntity
  8
cotas
100
AcDbLine
 10
5816.041879124653
 20
-1513.338552068524
 30
0.0
 11
5816.041879124653
 21
-1498.338343305527
 31
0.0
  0
SOLID
  5
6F
330
6A
100
AcDbEntity
  8
cotas
100
AcDbTrace
 10
5814.375212457986
 20
-1513.338552068524
 30
0.0
 11
5817.70854579132
 21
-1513.338552068524
 31
0.0
 12
5816.041879124653
 22
-1523.338552068524
 32
0.0
 13
5816.041879124653
 23
-1523.338552068524
 33
0.0
  0
SOLID
  5
70
330
6A
100
AcDbEntity
  8
cotas
100
AcDbTrace
 10
5814.375212457986
 20
-1498.338343305527
 30
0.0
 11
5817.70854579132
 21
-1498.338343305527
 31
0.0
 12
5816.041879124653
 22
-1488.338343305527
 32
0.0
 13
5816.041879124653
 23
-1488.338343305527
 33
0.0
  0
MTEXT
  5
71
330
6A
100
AcDbEntity
  8
cotas
100
AcDbMText
 10
5805.833685706251
 20
-1505.838447687025
 30
0.0
 40
10.0
 41
0.0
 71
     5
 72
     1
  1
35
  7
SANINDUSA
 11
0.0000000000000001
 21
1.0
 31
0.0
 73
     1
 44
1.0
1001
ACAD
1000
MTEXTBEGIN
1070
    73
1070
     1
1070
    44
1040
1.0
1070
    74
1070
     0
1000
MTEXTEND
  0
POINT
  5
72
330
6A
100
AcDbEntity
  8
Defpoints
 62
     0
100
AcDbPoint
 10
5966.597826156096
 20
-1523.338552068524
 30
0.0
  0
POINT
  5
73
330
6A
100
AcDbEntity
  8
Defpoints
 62
     0
100
AcDbPoint
 10
5871.041879124653
 20
-1488.338343305527
 30
0.0
  0
POINT
  5
74
330
6A
100
AcDbEntity
  8
Defpoints
 62
     0
100
AcDbPoint
 10
5816.041879124653
 20
-1488.338343305527
 30
0.0
  0
ENDBLK
  5
75
330
6A
100
AcDbEntity
  8
0
 62
     9
100
AcDbBlockEnd
  0
BLOCK
  5
77
330
76
100
AcDbEntity
  8
0
 62
     9
100
AcDbBlockBegin
  2
*D7
 70
     1
 10
0.0
 20
0.0
 30
0.0
  3
*D7
  1

  0
LINE
  5
78
330
76
100
AcDbEntity
  8
cotas
100
AcDbLine
 10
6343.541879124654
 20
-1586.536710780147
 30
0.0
 11
6343.541879124654
 21
-1433.338343305527
 31
0.0
  0
LINE
  5
79
330
76
100
AcDbEntity
  8
cotas
100
AcDbLine
 10
5901.041879124653
 20
-1603.865739058499
 30
0.0
 11
5901.041879124653
 21
-1433.338343305527
 31
0.0
  0
LINE
  5
7A
330
76
100
AcDbEntity
  8
cotas
100
AcDbLine
 10
6333.541879124653
 20
-1438.338343305527
 30
0.0
 11
5911.041879124653
 21
-1438.338343305527
 31
0.0
  0
SOLID
  5
7B
330
76
100
AcDbEntity
  8
cotas
100
AcDbTrace
 10
6333.541879124653
 20
-1436.67167663886
 30
0.0
 11
6333.541879124653
 21
-1440.005009972194
 31
0.0
 12
6343.541879124654
 22
-1438.338343305527
 32
0.0
 13
6343.541879124654
 23
-1438.338343305527
 33
0.0
  0
SOLID
  5
7C
330
76
100
AcDbEntity
  8
cotas
100
AcDbTrace
 10
5911.041879124653
 20
-1436.67167663886
 30
0.0
 11
5911.041879124653
 21
-1440.005009972194
 31
0.0
 12
5901.041879124653
 22
-1438.338343305527
 32
0.0
 13
5901.041879124653
 23
-1438.338343305527
 33
0.0
  0
MTEXT
  5
7D
330
76
100
AcDbEntity
  8
cotas
100
AcDbMText
 10
6122.291879124652
 20
-1426.991802002639
 30
0.0
 40
10.0
 41
0.0
 71
     5
 72
     1
  1
442,5
  7
SANINDUSA
 73
     1
 44
1.0
1001
ACAD
1000
MTEXTBEGIN
1070
    73
1070
     1
1070
    44
1040
1.0
1070
    74
1070
     0
1000
MTEXTEND
  0
POINT
  5
7E
330
76
100
AcDbEntity
  8
Defpoints
 62
     0
100
AcDbPoint
 10
6343.541879124654
 20
-1591.536710780147
 30
0.0
  0
POINT
  5
7F
330
76
100
AcDbEntity
  8
Defpoints
 62
     0
100
AcDbPoint
 10
5901.041879124653
 20
-1608.865739058499
 30
0.0
  0
POINT
  5
80
330
76
100
AcDbEntity
  8
Defpoints
 62
     0
100
AcDbPoint
 10
5901.041879124653
 20
-1438.338343305527
 30
0.0
  0
ENDBLK
  5
81
330
76
100
AcDbEntity
  8
0
 62
     9
100
AcDbBlockEnd
  0
BLOCK
  5
83
330
82
100
AcDbEntity
  8
0
 62
     9
100
AcDbBlockBegin
  2
*D8
 70
     1
 10
0.0
 20
0.0
 30
0.0
  3
*D8
  1

  0
LINE
  5
84
330
82
100
AcDbEntity
  8
cotas
100
AcDbLine
 10
6786.059160966274
 20
-1633.242228790549
 30
0.0
 11
6786.059160966274
 21
-1433.338343305527
 31
0.0
  0
LINE
  5
85
330
82
100
AcDbEntity
  8
cotas
100
AcDbLine
 10
6343.541879124654
 20
-1441.664782857306
 30
0.0
 11
6343.541879124654
 21
-1433.338343305527
 31
0.0
  0
LINE
  5
86
330
82
100
AcDbEntity
  8
cotas
100
AcDbLine
 10
6776.059160966275
 20
-1438.338343305527
 30
0.0
 11
6353.541879124652
 21
-1438.338343305527
 31
0.0
  0
SOLID
  5
87
330
82
100
AcDbEntity
  8
cotas
100
AcDbTrace
 10
6776.059160966275
 20
-1436.67167663886
 30
0.0
 11
6776.059160966275
 21
-1440.005009972194
 31
0.0
 12
6786.059160966274
 22
-1438.338343305527
 32
0.0
 13
6786.059160966274
 23
-1438.338343305527
 33
0.0
  0
SOLID
  5
88
330
82
100
AcDbEntity
  8
cotas
100
AcDbTrace
 10
6353.541879124652
 20
-1436.67167663886
 30
0.0
 11
6353.541879124652
 21
-1440.005009972194
 31
0.0
 12
6343.541879124654
 22
-1438.338343305527
 32
0.0
 13
6343.541879124654
 23
-1438.338343305527
 33
0.0
  0
MTEXT
  5
89
330
82
100
AcDbEntity
  8
cotas
100
AcDbMText
 10
6564.800520045465
 20
-1426.991802002639
 30
0.0
 40
10.0
 41
0.0
 71
     5
 72
     1
  1
442,5
  7
SANINDUSA
 73
     1
 44
1.0
1001
ACAD
1000
MTEXTBEGIN
1070
    73
1070
     1
1070
    44
1040
1.0
1070
    74
1070
     0
1000
MTEXTEND
  0
POINT
  5
8A
330
82
100
AcDbEntity
  8
Defpoints
 62
     0
100
AcDbPoint
 10
6786.059160966274
 20
-1638.242228790549
 30
0.0
  0
POINT
  5
8B
330
82
100
AcDbEntity
  8
Defpoints
 62
     0
100
AcDbPoint
 10
6343.541879124654
 20
-1446.664782857306
 30
0.0
  0
POINT
  5
8C
330
82
100
AcDbEntity
  8
Defpoints
 62
     0
100
AcDbPoint
 10
6343.541879124654
 20
-1438.338343305527
 30
0.0
  0
ENDBLK
  5
8D
330
82
100
AcDbEntity
  8
0
 62
     9
100
AcDbBlockEnd
  0
BLOCK
  5
8F
330
8E
100
AcDbEntity
  8
0
 62
     9
100
AcDbBlockBegin
  2
*D9
 70
     1
 10
0.0
 20
0.0
 30
0.0
  3
*D9
  1

  0
LINE
  5
90
330
8E
100
AcDbEntity
  8
cotas
100
AcDbLine
 10
6725.456430816506
 20
-1633.338343305526
 30
0.0
 11
6725.456430816506
 21
-1458.338343305526
 31
0.0
  0
LINE
  5
91
330
8E
100
AcDbEntity
  8
cotas
100
AcDbLine
 10
6786.059160966274
 20
-1633.242228790549
 30
0.0
 11
6786.059160966274
 21
-1458.338343305526
 31
0.0
  0
LINE
  5
92
330
8E
100
AcDbEntity
  8
cotas
100
AcDbLine
 10
6735.456430816505
 20
-1463.338343305526
 30
0.0
 11
6776.059160966275
 21
-1463.338343305526
 31
0.0
  0
SOLID
  5
93
330
8E
100
AcDbEntity
  8
cotas
100
AcDbTrace
 10
6735.456430816505
 20
-1461.671676638859
 30
0.0
 11
6735.456430816505
 21
-1465.005009972193
 31
0.0
 12
6725.456430816506
 22
-1463.338343305526
 32
0.0
 13
6725.456430816506
 23
-1463.338343305526
 33
0.0
  0
SOLID
  5
94
330
8E
100
AcDbEntity
  8
cotas
100
AcDbTrace
 10
6776.059160966275
 20
-1461.671676638859
 30
0.0
 11
6776.059160966275
 21
-1465.005009972193
 31
0.0
 12
6786.059160966274
 22
-1463.338343305526
 32
0.0
 13
6786.059160966274
 23
-1463.338343305526
 33
0.0
  0
MTEXT
  5
95
330
8E
100
AcDbEntity
  8
cotas
100
AcDbMText
 10
6755.75779589139
 20
-1451.995159961
 30
0.0
 40
10.0
 41
0.0
 71
     5
 72
     1
  1
60,6
  7
SANINDUSA
 73
     1
 44
1.0
1001
ACAD
1000
MTEXTBEGIN
1070
    73
1070
     1
1070
    44
1040
1.0
1070
    74
1070
     0
1000
MTEXTEND
  0
POINT
  5
96
330
8E
100
AcDbEntity
  8
Defpoints
 62
     0
100
AcDbPoint
 10
6725.456430816506
 20
-1638.338343305526
 30
0.0
  0
POINT
  5
97
330
8E
100
AcDbEntity
  8
Defpoints
 62
     0
100
AcDbPoint
 10
6786.059160966274
 20
-1638.242228790549
 30
0.0
  0
POINT
  5
98
330
8E
100
AcDbEntity
  8
Defpoints
 62
     0
100
AcDbPoint
 10
6786.059160966274
 20
-1463.338343305526
 30
0.0
  0
ENDBLK
  5
99
330
8E
100
AcDbEntity
  8
0
 62
     9
100
AcDbBlockEnd
  0
BLOCK
  5
9B
330
9A
100
AcDbEntity
  8
0
 62
     9
100
AcDbBlockBegin
  2
*D10
 70
     1
 10
0.0
 20
0.0
 30
0.0
  3
*D10
  1

  0
LINE
  5
9C
330
9A
100
AcDbEntity
  8
cotas
100
AcDbLine
 10
6786.059162182112
 20
-1458.338343305527
 30
0.0
 11
6786.059162182112
 21
-1458.338342973212
 31
0.0
  0
LINE
  5
9D
330
9A
100
AcDbEntity
  8
cotas
100
AcDbLine
 10
6846.041879124652
 20
-1513.338343305526
 30
0.0
 11
6846.041879124652
 21
-1458.338342973212
 31
0.0
  0
LINE
  5
9E
330
9A
100
AcDbEntity
  8
cotas
100
AcDbLine
 10
6796.05916218211
 20
-1463.338342973212
 30
0.0
 11
6836.041879124653
 21
-1463.338342973212
 31
0.0
  0
SOLID
  5
9F
330
9A
100
AcDbEntity
  8
cotas
100
AcDbTrace
 10
6796.05916218211
 20
-1461.671676306545
 30
0.0
 11
6796.05916218211
 21
-1465.005009639878
 31
0.0
 12
6786.059162182112
 22
-1463.338342973212
 32
0.0
 13
6786.059162182112
 23
-1463.338342973212
 33
0.0
  0
SOLID
  5
A0
330
9A
100
AcDbEntity
  8
cotas
100
AcDbTrace
 10
6836.041879124653
 20
-1461.671676306545
 30
0.0
 11
6836.041879124653
 21
-1465.005009639878
 31
0.0
 12
6846.041879124652
 22
-1463.338342973212
 32
0.0
 13
6846.041879124652
 23
-1463.338342973212
 33
0.0
  0
MTEXT
  5
A1
330
9A
100
AcDbEntity
  8
cotas
100
AcDbMText
 10
6816.050520653381
 20
-1453.133507513171
 30
0.0
 40
10.0
 41
0.0
 71
     5
 72
     1
  1
60
  7
SANINDUSA
 73
     1
 44
1.0
1001
ACAD
1000
MTEXTBEGIN
1070
    73
1070
     1
1070
    44
1040
1.0
1070
    74
1070
     0
1000
MTEXTEND
  0
POINT
  5
A2
330
9A
100
AcDbEntity
  8
Defpoints
 62
     0
100
AcDbPoint
 10
6786.059162182112
 20
-1463.338343305527
 30
0.0
  0
POINT
  5
A3
330
9A
100
AcDbEntity
  8
Defpoints
 62
     0
100
AcDbPoint
 10
6846.041879124652
 20
-1518.338343305526
 30
0.0
  0
POINT
  5
A4
330
9A
100
AcDbEntity
  8
Defpoints
 62
     0
100
AcDbPoint
 10
6846.041879124652
 20
-1463.338342973212
 30
0.0
  0
ENDBLK
  5
A5
330
9A
100
AcDbEntity
  8
0
 62
     9
100
AcDbBlockEnd
  0
BLOCK
  5
A7
330
A6
100
AcDbEntity
  8
0
 62
     9
100
AcDbBlockBegin
  2
*D11
 70
     1
 10
0.0
 20
0.0
 30
0.0
  3
*D11
  1

  0
LINE
  5
A8
330
A6
100
AcDbEntity
  8
cotas
100
AcDbLine
 10
5841.041879124652
 20
-1513.338343305527
 30
0.0
 11
5841.041879124652
 21
-1408.338343305527
 31
0.0
  0
LINE
  5
A9
330
A6
100
AcDbEntity
  8
cotas
100
AcDbLine
 10
6846.041879124652
 20
-1513.338343305526
 30
0.0
 11
6846.041879124652
 21
-1408.338343305527
 31
0.0
  0
LINE
  5
AA
330
A6
100
AcDbEntity
  8
cotas
100
AcDbLine
 10
5851.041879124653
 20
-1413.338343305527
 30
0.0
 11
6836.041879124653
 21
-1413.338343305527
 31
0.0
  0
SOLID
  5
AB
330
A6
100
AcDbEntity
  8
cotas
100
AcDbTrace
 10
5851.041879124653
 20
-1411.67167663886
 30
0.0
 11
5851.041879124653
 21
-1415.005009972194
 31
0.0
 12
5841.041879124652
 22
-1413.338343305527
 32
0.0
 13
5841.041879124652
 23
-1413.338343305527
 33
0.0
  0
SOLID
  5
AC
330
A6
100
AcDbEntity
  8
cotas
100
AcDbTrace
 10
6836.041879124653
 20
-1411.67167663886
 30
0.0
 11
6836.041879124653
 21
-1415.005009972194
 31
0.0
 12
6846.041879124652
 22
-1413.338343305527
 32
0.0
 13
6846.041879124652
 23
-1413.338343305527
 33
0.0
  0
MTEXT
  5
AD
330
A6
100
AcDbEntity
  8
cotas
100
AcDbMText
 10
6343.541879124654
 20
-1403.133507845487
 30
0.0
 40
10.0
 41
0.0
 71
     5
 72
     1
  1
1005
  7
SANINDUSA
 73
     1
 44
1.0
1001
ACAD
1000
MTEXTBEGIN
1070
    73
1070
     1
1070
    44
1040
1.0
1070
    74
1070
     0
1000
MTEXTEND
  0
POINT
  5
AE
330
A6
100
AcDbEntity
  8
Defpoints
 62
     0
100
AcDbPoint
 10
5841.041879124652
 20
-1518.338343305527
 30
0.0
  0
POINT
  5
AF
330
A6
100
AcDbEntity
  8
Defpoints
 62
     0
100
AcDbPoint
 10
6846.041879124652
 20
-1518.338343305526
 30
0.0
  0
POINT
  5
B0
330
A6
100
AcDbEntity
  8
Defpoints
 62
     0
100
AcDbPoint
 10
6846.041879124652
 20
-1413.338343305527
 30
0.0
  0
ENDBLK
  5
B1
330
A6
100
AcDbEntity
  8
0
 62
     9
100
AcDbBlockEnd
  0
BLOCK
  5
B3
330
B2
100
AcDbEntity
  8
0
 62
     9
100
AcDbBlockBegin
  2
*D12
 70
     1
 10
0.0
 20
0.0
 30
0.0
  3
*D12
  1

  0
LINE
  5
B4
330
B2
100
AcDbEntity
  8
cotas
100
AcDbLine
 10
6798.504301267555
 20
-1740.800765448424
 30
0.0
 11
6830.184014748382
 21
-1772.480478929261
 31
0.0
  0
MTEXT
  5
B5
330
B2
100
AcDbEntity
  8
cotas
100
AcDbMText
 10
6818.026906891851
 20
-1745.886805493092
 30
0.0
 40
10.0
 41
0.0
 71
     5
 72
     1
  1
R30
  7
SANINDUSA
 11
0.7071067811864415
 21
-0.7071067811866536
 31
0.0
 73
     1
 44
1.0
1001
ACAD
1000
MTEXTBEGIN
1070
    73
1070
     1
1070
    44
1040
1.0
1070
    74
1070
     0
1000
MTEXTEND
  0
SOLID
  5
B6
330
B2
100
AcDbEntity
  8
cotas
100
AcDbTrace
 10
6831.36252605036
 20
-1771.301967627284
 30
0.0
 11
6829.005503446405
 21
-1773.658990231238
 31
0.0
 12
6837.255082560247
 22
-1779.551546741128
 32
0.0
 13
6837.255082560247
 23
-1779.551546741128
 33
0.0
  0
POINT
  5
B7
330
B2
100
AcDbEntity
  8
Defpoints
 62
     0
100
AcDbPoint
 10
6837.255082560247
 20
-1779.551546741128
 30
0.0
  0
POINT
  5
B8
330
B2
100
AcDbEntity
  8
Defpoints
 62
     0
100
AcDbPoint
 10
6816.041879124653
 20
-1758.338343305527
 30
0.0
  0
ENDBLK
  5
B9
330
B2
100
AcDbEntity
  8
0
 62
     9
100
AcDbBlockEnd
  0
BLOCK
  5
BB
330
BA
100
AcDbEntity
  8
0
 62
     9
100
AcDbBlockBegin
  2
*D13
 70
     1
 10
0.0
 20
0.0
 30
0.0
  3
*D13
  1

  0
LINE
  5
BC
330
BA
100
AcDbEntity
  8
cotas
100
AcDbLine
 10
6795.811363570308
 20
-1538.259350995183
 30
0.0
 11
6830.292605957897
 21
-1504.305639192487
 31
0.0
  0
MTEXT
  5
BD
330
BA
100
AcDbEntity
  8
cotas
100
AcDbMText
 10
6801.047737973643
 20
-1518.776529926203
 30
0.0
 40
10.0
 41
0.0
 71
     5
 72
     1
  1
R30
  7
SANINDUSA
 11
0.7125363416624061
 21
0.7016352056520219
 31
0.0
 73
     1
 44
1.0
1001
ACAD
1000
MTEXTBEGIN
1070
    73
1070
     1
1070
    44
1040
1.0
1070
    74
1070
     0
1000
MTEXTEND
  0
SOLID
  5
BE
330
BA
100
AcDbEntity
  8
cotas
100
AcDbTrace
 10
6829.123213948476
 20
-1503.11807862305
 30
0.0
 11
6831.461997967316
 21
-1505.493199761925
 31
0.0
 12
6837.41796937452
 22
-1497.289287135967
 32
0.0
 13
6837.41796937452
 23
-1497.289287135967
 33
0.0
  0
POINT
  5
BF
330
BA
100
AcDbEntity
  8
Defpoints
 62
     0
100
AcDbPoint
 10
6837.41796937452
 20
-1497.289287135967
 30
0.0
  0
POINT
  5
C0
330
BA
100
AcDbEntity
  8
Defpoints
 62
     0
100
AcDbPoint
 10
6816.041879124653
 20
-1518.338343305524
 30
0.0
  0
ENDBLK
  5
C1
330
BA
100
AcDbEntity
  8
0
 62
     9
100
AcDbBlockEnd
  0
BLOCK
  5
C3
330
C2
100
AcDbEntity
  8
0
 62
     9
100
AcDbBlockBegin
  2
*D14
 70
     1
 10
0.0
 20
0.0
 30
0.0
  3
*D14
  1

  0
LINE
  5
C4
330
C2
100
AcDbEntity
  8
cotas
100
AcDbLine
 10
5892.928096667798
 20
-1530.005680441366
 30
0.0
 11
5853.393041907342
 21
-1508.929913846941
 31
0.0
  0
MTEXT
  5
C5
330
C2
100
AcDbEntity
  8
cotas
100
AcDbMText
 10
5882.374931975725
 20
-1512.811767312593
 30
0.0
 40
10.0
 41
0.0
 71
     5
 72
     1
  1
R30
  7
SANINDUSA
 11
0.8824418608652116
 21
-0.470421472929056
 31
0.0
 73
     1
 44
1.0
1001
ACAD
1000
MTEXTBEGIN
1070
    73
1070
     1
1070
    44
1040
1.0
1070
    74
1070
     0
1000
MTEXTEND
  0
SOLID
  5
C6
330
C2
100
AcDbEntity
  8
cotas
100
AcDbTrace
 10
5854.177077695556
 20
-1507.459177412166
 30
0.0
 11
5852.609006119126
 21
-1510.400650281717
 31
0.0
 12
5844.568623298689
 22
-1504.225699117651
 32
0.0
 13
5844.568623298689
 23
-1504.225699117651
 33
0.0
  0
POINT
  5
C7
330
C2
100
AcDbEntity
  8
Defpoints
 62
     0
100
AcDbPoint
 10
5844.568623298689
 20
-1504.225699117651
 30
0.0
  0
POINT
  5
C8
330
C2
100
AcDbEntity
  8
Defpoints
 62
     0
100
AcDbPoint
 10
5871.041879124653
 20
-1518.338343305528
 30
0.0
  0
ENDBLK
  5
C9
330
C2
100
AcDbEntity
  8
0
 62
     9
100
AcDbBlockEnd
  0
BLOCK
  5
CB
330
CA
100
AcDbEntity
  8
0
 62
     9
100
AcDbBlockBegin
  2
*D15
 70
     1
 10
0.0
 20
0.0
 30
0.0
  3
*D15
  1

  0
LINE
  5
CC
330
CA
100
AcDbEntity
  8
cotas
100
AcDbLine
 10
5889.891241219722
 20
-1742.218950550322
 30
0.0
 11
5855.841933194755
 21
-1771.336867980588
 31
0.0
  0
MTEXT
  5
CD
330
CA
100
AcDbEntity
  8
cotas
100
AcDbMText
 10
5870.032000987869
 20
-1745.770078696607
 30
0.0
 40
10.0
 41
0.0
 71
     5
 72
     1
  1
R30
  7
SANINDUSA
 11
0.7599972964949277
 21
0.6499262337530322
 31
0.0
 73
     1
 44
1.0
1001
ACAD
1000
MTEXTBEGIN
1070
    73
1070
     1
1070
    44
1040
1.0
1070
    74
1070
     0
1000
MTEXTEND
  0
SOLID
  5
CE
330
CA
100
AcDbEntity
  8
cotas
100
AcDbTrace
 10
5854.758722805167
 20
-1770.070205819763
 30
0.0
 11
5856.925143584343
 21
-1772.603530141412
 31
0.0
 12
5848.241960229806
 22
-1777.836130318118
 32
0.0
 13
5848.241960229806
 23
-1777.836130318118
 33
0.0
  0
POINT
  5
CF
330
CA
100
AcDbEntity
  8
Defpoints
 62
     0
100
AcDbPoint
 10
5848.241960229806
 20
-1777.836130318118
 30
0.0
  0
POINT
  5
D0
330
CA
100
AcDbEntity
  8
Defpoints
 62
     0
100
AcDbPoint
 10
5871.041879124653
 20
-1758.338343305528
 30
0.0
  0
ENDBLK
  5
D1
330
CA
100
AcDbEntity
  8
0
 62
     9
100
AcDbBlockEnd
  0
BLOCK
  5
D3
330
D2
100
AcDbEntity
  8
0
 62
     9
100
AcDbBlockBegin
  2
*D16
 70
     1
 10
0.0
 20
0.0
 30
0.0
  3
*D16
  1

  0
LINE
  5
D4
330
D2
100
AcDbEntity
  8
cotas
100
AcDbLine
 10
6846.041879124652
 20
-1061.527048193495
 30
0.0
 11
6879.225591327325
 21
-1061.527048193495
 31
0.0
  0
LINE
  5
D5
330
D2
100
AcDbEntity
  8
cotas
100
AcDbLine
 10
6846.041879124652
 20
-1261.527048193495
 30
0.0
 11
6879.225591327325
 21
-1261.527048193495
 31
0.0
  0
LINE
  5
D6
330
D2
100
AcDbEntity
  8
cotas
100
AcDbLine
 10
6874.225591327325
 20
-1071.527048193495
 30
0.0
 11
6874.225591327325
 21
-1251.527048193495
 31
0.0
  0
SOLID
  5
D7
330
D2
100
AcDbEntity
  8
cotas
100
AcDbTrace
 10
6872.558924660658
 20
-1071.527048193495
 30
0.0
 11
6875.892257993993
 21
-1071.527048193495
 31
0.0
 12
6874.225591327325
 22
-1061.527048193495
 32
0.0
 13
6874.225591327325
 23
-1061.527048193495
 33
0.0
  0
SOLID
  5
D8
330
D2
100
AcDbEntity
  8
cotas
100
AcDbTrace
 10
6872.558924660658
 20
-1251.527048193495
 30
0.0
 11
6875.892257993993
 21
-1251.527048193495
 31
0.0
 12
6874.225591327325
 22
-1261.527048193495
 32
0.0
 13
6874.225591327325
 23
-1261.527048193495
 33
0.0
  0
MTEXT
  5
D9
330
D2
100
AcDbEntity
  8
cotas
100
AcDbMText
 10
6864.017397908924
 20
-1161.527048193494
 30
0.0
 40
10.0
 41
0.0
 71
     5
 72
     1
  1
200
  7
SANINDUSA
 11
0.0000000000000001
 21
1.0
 31
0.0
 73
     1
 44
1.0
1001
ACAD
1000
MTEXTBEGIN
1070
    73
1070
     1
1070
    44
1040
1.0
1070
    74
1070
     0
1000
MTEXTEND
  0
POINT
  5
DA
330
D2
100
AcDbEntity
  8
Defpoints
 62
     0
100
AcDbPoint
 10
6841.041879124652
 20
-1061.527048193495
 30
0.0
  0
POINT
  5
DB
330
D2
100
AcDbEntity
  8
Defpoints
 62
     0
100
AcDbPoint
 10
6841.041879124652
 20
-1261.527048193495
 30
0.0
  0
POINT
  5
DC
330
D2
100
AcDbEntity
  8
Defpoints
 62
     0
100
AcDbPoint
 10
6874.225591327325
 20
-1261.527048193495
 30
0.0
  0
ENDBLK
  5
DD
330
D2
100
AcDbEntity
  8
0
 62
     9
100
AcDbBlockEnd
  0
BLOCK
  5
DF
330
DE
100
AcDbEntity
  8
0
 62
     9
100
AcDbBlockBegin
  2
*D17
 70
     1
 10
0.0
 20
0.0
 30
0.0
  3
*D17
  1

  0
LINE
  5
E0
330
DE
100
AcDbEntity
  8
cotas
100
AcDbLine
 10
5841.041879124652
 20
-1061.527048193495
 30
0.0
 11
5841.041879124652
 21
-1034.698110054266
 31
0.0
  0
LINE
  5
E1
330
DE
100
AcDbEntity
  8
cotas
100
AcDbLine
 10
6846.041879124652
 20
-1061.527048193495
 30
0.0
 11
6846.041879124652
 21
-1034.698110054266
 31
0.0
  0
LINE
  5
E2
330
DE
100
AcDbEntity
  8
cotas
100
AcDbLine
 10
5851.041879124653
 20
-1039.698110054266
 30
0.0
 11
6836.041879124653
 21
-1039.698110054266
 31
0.0
  0
SOLID
  5
E3
330
DE
100
AcDbEntity
  8
cotas
100
AcDbTrace
 10
5851.041879124653
 20
-1038.0314433876
 30
0.0
 11
5851.041879124653
 21
-1041.364776720933
 31
0.0
 12
5841.041879124652
 22
-1039.698110054266
 32
0.0
 13
5841.041879124652
 23
-1039.698110054266
 33
0.0
  0
SOLID
  5
E4
330
DE
100
AcDbEntity
  8
cotas
100
AcDbTrace
 10
6836.041879124653
 20
-1038.0314433876
 30
0.0
 11
6836.041879124653
 21
-1041.364776720933
 31
0.0
 12
6846.041879124652
 22
-1039.698110054266
 32
0.0
 13
6846.041879124652
 23
-1039.698110054266
 33
0.0
  0
MTEXT
  5
E5
330
DE
100
AcDbEntity
  8
cotas
100
AcDbMText
 10
6385.502164199024
 20
-1029.493274594226
 30
0.0
 40
10.0
 41
0.0
 71
     5
 72
     1
  1
1005
  7
SANINDUSA
 73
     1
 44
1.0
1001
ACAD
1000
MTEXTBEGIN
1070
    73
1070
     1
1070
    44
1040
1.0
1070
    74
1070
     0
1000
MTEXTEND
  0
POINT
  5
E6
330
DE
100
AcDbEntity
  8
Defpoints
 62
     0
100
AcDbPoint
 10
5841.041879124652
 20
-1066.527048193495
 30
0.0
  0
POINT
  5
E7
330
DE
100
AcDbEntity
  8
Defpoints
 62
     0
100
AcDbPoint
 10
6846.041879124652
 20
-1066.527048193495
 30
0.0
  0
POINT
  5
E8
330
DE
100
AcDbEntity
  8
Defpoints
 62
     0
100
AcDbPoint
 10
6846.041879124652
 20
-1039.698110054266
 30
0.0
  0
ENDBLK
  5
E9
330
DE
100
AcDbEntity
  8
0
 62
     9
100
AcDbBlockEnd
  0
BLOCK
  5
EB
330
EA
100
AcDbEntity
  8
0
 62
     9
100
AcDbBlockBegin
  2
*D18
 70
     1
 10
0.0
 20
0.0
 30
0.0
  3
*D18
  1

  0
LINE
  5
EC
330
EA
100
AcDbEntity
  8
cotas
100
AcDbLine
 10
5872.940369255879
 20
-1097.457620930238
 30
0.0
 11
5849.322935224051
 21
-1070.299934472264
 31
0.0
  0
MTEXT
  5
ED
330
EA
100
AcDbEntity
  8
cotas
100
AcDbMText
 10
5872.03702990608
 20
-1081.021242352694
 30
0.0
 40
10.0
 41
0.0
 71
     5
 72
     1
  1
R5
  7
SANINDUSA
 11
0.6562112198804041
 21
-0.7545772557552155
 31
0.0
 73
     1
 44
1.0
1001
ACAD
1000
MTEXTBEGIN
1070
    73
1070
     1
1070
    44
1040
1.0
1070
    74
1070
     0
1000
MTEXTEND
  0
SOLID
  5
EE
330
EA
100
AcDbEntity
  8
cotas
100
AcDbTrace
 10
5850.580563983641
 20
-1069.206249105797
 30
0.0
 11
5848.065306464458
 21
-1071.393619838732
 31
0.0
 12
5842.760823025247
 22
-1062.754161914712
 32
0.0
 13
5842.760823025247
 23
-1062.754161914712
 33
0.0
  0
POINT
  5
EF
330
EA
100
AcDbEntity
  8
Defpoints
 62
     0
100
AcDbPoint
 10
5842.760823025247
 20
-1062.754161914712
 30
0.0
  0
POINT
  5
F0
330
EA
100
AcDbEntity
  8
Defpoints
 62
     0
100
AcDbPoint
 10
5846.041879124655
 20
-1066.527048193496
 30
0.0
  0
ENDBLK
  5
F1
330
EA
100
AcDbEntity
  8
0
 62
     9
100
AcDbBlockEnd
  0
BLOCK
  5
F3
330
F2
100
AcDbEntity
  8
0
 62
     9
100
AcDbBlockBegin
  2
*D19
 70
     1
 10
0.0
 20
0.0
 30
0.0
  3
*D19
  1

  0
LINE
  5
F4
330
F2
100
AcDbEntity
  8
cotas
100
AcDbLine
 10
6779.017017383868
 20
-1107.007147694808
 30
0.0
 11
6836.854725314832
 21
-1069.259765334524
 31
0.0
  0
MTEXT
  5
F5
330
F2
100
AcDbEntity
  8
cotas
100
AcDbMText
 10
6784.37735275436
 20
-1091.443171100085
 30
0.0
 40
10.0
 41
0.0
 71
     5
 72
     1
  1
R5
  7
SANINDUSA
 11
0.8374307619648806
 21
0.5465434282057737
 31
0.0
 73
     1
 44
1.0
1001
ACAD
1000
MTEXTBEGIN
1070
    73
1070
     1
1070
    44
1040
1.0
1070
    74
1070
     0
1000
MTEXTEND
  0
SOLID
  5
F6
330
F2
100
AcDbEntity
  8
cotas
100
AcDbTrace
 10
6835.943819601154
 20
-1067.864047397915
 30
0.0
 11
6837.765631028507
 21
-1070.655483271132
 31
0.0
 12
6845.229032934479
 22
-1063.794331052466
 32
0.0
 13
6845.229032934479
 23
-1063.794331052466
 33
0.0
  0
POINT
  5
F7
330
F2
100
AcDbEntity
  8
Defpoints
 62
     0
100
AcDbPoint
 10
6845.229032934479
 20
-1063.794331052466
 30
0.0
  0
POINT
  5
F8
330
F2
100
AcDbEntity
  8
Defpoints
 62
     0
100
AcDbPoint
 10
6841.041879124654
 20
-1066.527048193496
 30
0.0
  0
ENDBLK
  5
F9
330
F2
100
AcDbEntity
  8
0
 62
     9
100
AcDbBlockEnd
  0
BLOCK
  5
FB
330
FA
100
AcDbEntity
  8
0
 62
     9
100
AcDbBlockBegin
  2
*D20
 70
     1
 10
0.0
 20
0.0
 30
0.0
  3
*D20
  1

  0
LINE
  5
FC
330
FA
100
AcDbEntity
  8
cotas
100
AcDbLine
 10
5810.379396591481
 20
-1292.971916077271
 30
0.0
 11
5835.550979587239
 21
-1267.248103500498
 31
0.0
  0
MTEXT
  5
FD
330
FA
100
AcDbEntity
  8
cotas
100
AcDbMText
 10
5812.246449600445
 20
-1276.616957325046
 30
0.0
 40
10.0
 41
0.0
 71
     5
 72
     1
  1
R5
  7
SANINDUSA
 11
0.6993933024945571
 21
0.7147370204667988
 31
0.0
 73
     1
 44
1.0
1001
ACAD
1000
MTEXTBEGIN
1070
    73
1070
     1
1070
    44
1040
1.0
1070
    74
1070
     0
1000
MTEXTEND
  0
LINE
  5
FE
330
FA
100
AcDbEntity
  8
cotas
100
AcDbLine
 10
5846.041879124658
 20
-1256.527048193495
 30
0.0
 11
5842.544912612184
 21
-1260.10073329583
 31
0.0
  0
SOLID
  5
FF
330
FA
100
AcDbEntity
  8
cotas
100
AcDbTrace
 10
5834.359751219793
 20
-1266.082447996341
 30
0.0
 11
5836.742207954684
 21
-1268.413759004656
 31
0.0
 12
5842.544912612184
 22
-1260.10073329583
 32
0.0
 13
5842.544912612184
 23
-1260.10073329583
 33
0.0
  0
POINT
  5
100
330
FA
100
AcDbEntity
  8
Defpoints
 62
     0
100
AcDbPoint
 10
5842.544912612184
 20
-1260.10073329583
 30
0.0
  0
POINT
  5
101
330
FA
100
AcDbEntity
  8
Defpoints
 62
     0
100
AcDbPoint
 10
5846.041879124658
 20
-1256.527048193495
 30
0.0
  0
ENDBLK
  5
102
330
FA
100
AcDbEntity
  8
0
 62
     9
100
AcDbBlockEnd
  0
BLOCK
  5
104
330
103
100
AcDbEntity
  8
0
 62
     9
100
AcDbBlockBegin
  2
*D21
 70
     1
 10
0.0
 20
0.0
 30
0.0
  3
*D21
  1

  0
LINE
  5
105
330
103
100
AcDbEntity
  8
cotas
100
AcDbLine
 10
6868.781268464968
 20
-1299.312178022933
 30
0.0
 11
6849.202027440968
 21
-1269.113230277665
 31
0.0
  0
MTEXT
  5
106
330
103
100
AcDbEntity
  8
cotas
100
AcDbMText
 10
6870.189830790275
 20
-1282.911369661727
 30
0.0
 40
10.0
 41
0.0
 71
     5
 72
     1
  1
R5
  7
SANINDUSA
 11
0.5440098877539663
 21
-0.8390788056111997
 31
0.0
 73
     1
 44
1.0
1001
ACAD
1000
MTEXTBEGIN
1070
    73
1070
     1
1070
    44
1040
1.0
1070
    74
1070
     0
1000
MTEXTEND
  0
LINE
  5
107
330
103
100
AcDbEntity
  8
cotas
100
AcDbLine
 10
6841.041879124659
 20
-1256.527048193498
 30
0.0
 11
6843.761928563428
 21
-1260.722442221553
 31
0.0
  0
SOLID
  5
108
330
103
100
AcDbEntity
  8
cotas
100
AcDbTrace
 10
6850.600492116988
 20
-1268.206547131408
 30
0.0
 11
6847.80356276495
 21
-1270.019913423921
 31
0.0
 12
6843.761928563428
 22
-1260.722442221553
 32
0.0
 13
6843.761928563428
 23
-1260.722442221553
 33
0.0
  0
POINT
  5
109
330
103
100
AcDbEntity
  8
Defpoints
 62
     0
100
AcDbPoint
 10
6843.761928563428
 20
-1260.722442221553
 30
0.0
  0
POINT
  5
10A
330
103
100
AcDbEntity
  8
Defpoints
 62
     0
100
AcDbPoint
 10
6841.041879124659
 20
-1256.527048193498
 30
0.0
  0
ENDBLK
  5
10B
330
103
100
AcDbEntity
  8
0
 62
     9
100
AcDbBlockEnd
  0
BLOCK
  5
10D
330
10C
100
AcDbEntity
  8
0
 62
     9
100
AcDbBlockBegin
  2
*D22
 70
     1
 10
0.0
 20
0.0
 30
0.0
  3
*D22
  1

  0
LINE
  5
10E
330
10C
100
AcDbEntity
  8
cotas
100
AcDbLine
 10
5395.782139671035
 20
-1061.527048193495
 30
0.0
 11
5395.782139671035
 21
-1036.04906308379
 31
0.0
  0
LINE
  5
10F
330
10C
100
AcDbEntity
  8
cotas
100
AcDbLine
 10
5695.782139671035
 20
-1061.527048193495
 30
0.0
 11
5695.782139671035
 21
-1036.04906308379
 31
0.0
  0
LINE
  5
110
330
10C
100
AcDbEntity
  8
cotas
100
AcDbLine
 10
5405.782139671035
 20
-1041.04906308379
 30
0.0
 11
5685.782139671035
 21
-1041.04906308379
 31
0.0
  0
SOLID
  5
111
330
10C
100
AcDbEntity
  8
cotas
100
AcDbTrace
 10
5405.782139671035
 20
-1039.382396417123
 30
0.0
 11
5405.782139671035
 21
-1042.715729750457
 31
0.0
 12
5395.782139671035
 22
-1041.04906308379
 32
0.0
 13
5395.782139671035
 23
-1041.04906308379
 33
0.0
  0
SOLID
  5
112
330
10C
100
AcDbEntity
  8
cotas
100
AcDbTrace
 10
5685.782139671035
 20
-1039.382396417123
 30
0.0
 11
5685.782139671035
 21
-1042.715729750457
 31
0.0
 12
5695.782139671035
 22
-1041.04906308379
 32
0.0
 13
5695.782139671035
 23
-1041.04906308379
 33
0.0
  0
MTEXT
  5
113
330
10C
100
AcDbEntity
  8
cotas
100
AcDbMText
 10
5545.782139671035
 20
-1030.840869665389
 30
0.0
 40
10.0
 41
0.0
 71
     5
 72
     1
  1
300
  7
SANINDUSA
 73
     1
 44
1.0
1001
ACAD
1000
MTEXTBEGIN
1070
    73
1070
     1
1070
    44
1040
1.0
1070
    74
1070
     0
1000
MTEXTEND
  0
POINT
  5
114
330
10C
100
AcDbEntity
  8
Defpoints
 62
     0
100
AcDbPoint
 10
5395.782139671035
 20
-1066.527048193495
 30
0.0
  0
POINT
  5
115
330
10C
100
AcDbEntity
  8
Defpoints
 62
     0
100
AcDbPoint
 10
5695.782139671035
 20
-1066.527048193495
 30
0.0
  0
POINT
  5
116
330
10C
100
AcDbEntity
  8
Defpoints
 62
     0
100
AcDbPoint
 10
5695.782139671035
 20
-1041.04906308379
 30
0.0
  0
ENDBLK
  5
117
330
10C
100
AcDbEntity
  8
0
 62
     9
100
AcDbBlockEnd
  0
BLOCK
  5
119
330
118
100
AcDbEntity
  8
0
 62
     9
100
AcDbBlockBegin
  2
*D23
 70
     1
 10
0.0
 20
0.0
 30
0.0
  3
*D23
  1

  0
LINE
  5
11A
330
118
100
AcDbEntity
  8
cotas
100
AcDbLine
 10
5683.282139671035
 20
-1061.527048193495
 30
0.0
 11
5730.315819786941
 21
-1061.527048193495
 31
0.0
  0
LINE
  5
11B
330
118
100
AcDbEntity
  8
cotas
100
AcDbLine
 10
5683.282139671035
 20
-1261.527048193495
 30
0.0
 11
5730.315819786941
 21
-1261.527048193495
 31
0.0
  0
LINE
  5
11C
330
118
100
AcDbEntity
  8
cotas
100
AcDbLine
 10
5725.315819786942
 20
-1071.527048193495
 30
0.0
 11
5725.315819786942
 21
-1251.527048193495
 31
0.0
  0
SOLID
  5
11D
330
118
100
AcDbEntity
  8
cotas
100
AcDbTrace
 10
5723.649153120274
 20
-1071.527048193495
 30
0.0
 11
5726.982486453608
 21
-1071.527048193495
 31
0.0
 12
5725.315819786942
 22
-1061.527048193495
 32
0.0
 13
5725.315819786942
 23
-1061.527048193495
 33
0.0
  0
SOLID
  5
11E
330
118
100
AcDbEntity
  8
cotas
100
AcDbTrace
 10
5723.649153120274
 20
-1251.527048193495
 30
0.0
 11
5726.982486453608
 21
-1251.527048193495
 31
0.0
 12
5725.315819786942
 22
-1261.527048193495
 32
0.0
 13
5725.315819786942
 23
-1261.527048193495
 33
0.0
  0
MTEXT
  5
11F
330
118
100
AcDbEntity
  8
cotas
100
AcDbMText
 10
5715.10762636854
 20
-1161.527048193494
 30
0.0
 40
10.0
 41
0.0
 71
     5
 72
     1
  1
200
  7
SANINDUSA
 11
0.0000000000000001
 21
1.0
 31
0.0
 73
     1
 44
1.0
1001
ACAD
1000
MTEXTBEGIN
1070
    73
1070
     1
1070
    44
1040
1.0
1070
    74
1070
     0
1000
MTEXTEND
  0
POINT
  5
120
330
118
100
AcDbEntity
  8
Defpoints
 62
     0
100
AcDbPoint
 10
5678.282139671035
 20
-1061.527048193495
 30
0.0
  0
POINT
  5
121
330
118
100
AcDbEntity
  8
Defpoints
 62
     0
100
AcDbPoint
 10
5678.282139671035
 20
-1261.527048193495
 30
0.0
  0
POINT
  5
122
330
118
100
AcDbEntity
  8
Defpoints
 62
     0
100
AcDbPoint
 10
5725.315819786942
 20
-1261.527048193495
 30
0.0
  0
ENDBLK
  5
123
330
118
100
AcDbEntity
  8
0
 62
     9
100
AcDbBlockEnd
  0
BLOCK
  5
125
330
124
100
AcDbEntity
  8
0
 62
     9
100
AcDbBlockBegin
  2
*D24
 70
     1
 10
0.0
 20
0.0
 30
0.0
  3
*D24
  1

  0
LINE
  5
126
330
124
100
AcDbEntity
  8
cotas
100
AcDbLine
 10
8079.715334465168
 20
-1415.959613234836
 30
0.0
 11
8059.890750107802
 21
-1445.998071568361
 31
0.0
  0
MTEXT
  5
127
330
124
100
AcDbEntity
  8
cotas
100
AcDbMText
 10
8064.124098918556
 20
-1421.240137532227
 30
0.0
 40
10.0
 41
0.0
 71
     5
 72
     1
  1
R5
  7
SANINDUSA
 11
0.5508267607411789
 21
0.8346196017656067
 31
0.0
 73
     1
 44
1.0
1001
ACAD
1000
MTEXTBEGIN
1070
    73
1070
     1
1070
    44
1040
1.0
1070
    74
1070
     0
1000
MTEXTEND
  0
LINE
  5
128
330
124
100
AcDbEntity
  8
cotas
100
AcDbLine
 10
8051.628348696679
 20
-1458.517365594852
 30
0.0
 11
8054.38248250039
 21
-1454.344267586018
 31
0.0
  0
SOLID
  5
129
330
124
100
AcDbEntity
  8
cotas
100
AcDbTrace
 10
8058.499717438191
 20
-1445.080026967125
 30
0.0
 11
8061.281782777411
 21
-1446.916116169596
 31
0.0
 12
8054.38248250039
 22
-1454.344267586018
 32
0.0
 13
8054.38248250039
 23
-1454.344267586018
 33
0.0
  0
POINT
  5
12A
330
124
100
AcDbEntity
  8
Defpoints
 62
     0
100
AcDbPoint
 10
8054.38248250039
 20
-1454.344267586018
 30
0.0
  0
POINT
  5
12B
330
124
100
AcDbEntity
  8
Defpoints
 62
     0
100
AcDbPoint
 10
8051.628348696679
 20
-1458.517365594852
 30
0.0
  0
ENDBLK
  5
12C
330
124
100
AcDbEntity
  8
0
 62
     9
100
AcDbBlockEnd
  0
BLOCK
  5
12E
330
12D
100
AcDbEntity
  8
0
 62
     9
100
AcDbBlockBegin
  2
*D25
 70
     1
 10
0.0
 20
0.0
 30
0.0
  3
*D25
  1

  0
LINE
  5
12F
330
12D
100
AcDbEntity
  8
cotas
100
AcDbLine
 10
8094.416541434068
 20
-1676.252030145991
 30
0.0
 11
8064.215431802246
 21
-1656.676124011048
 31
0.0
  0
MTEXT
  5
130
330
12D
100
AcDbEntity
  8
cotas
100
AcDbMText
 10
8089.007473257625
 20
-1660.704922884901
 30
0.0
 40
10.0
 41
0.0
 71
     5
 72
     1
  1
R5
  7
SANINDUSA
 11
0.839138873703675
 21
-0.5439172277463987
 31
0.0
 73
     1
 44
1.0
1001
ACAD
1000
MTEXTBEGIN
1070
    73
1070
     1
1070
    44
1040
1.0
1070
    74
1070
     0
1000
MTEXTEND
  0
LINE
  5
131
330
12D
100
AcDbEntity
  8
cotas
100
AcDbLine
 10
8051.628348696686
 20
-1648.517365594848
 30
0.0
 11
8055.824043065209
 21
-1651.236951733584
 31
0.0
  0
SOLID
  5
132
330
12D
100
AcDbEntity
  8
cotas
100
AcDbTrace
 10
8065.121960515158
 20
-1655.277559221542
 30
0.0
 11
8063.308903089335
 21
-1658.074688800554
 31
0.0
 12
8055.824043065209
 22
-1651.236951733584
 32
0.0
 13
8055.824043065209
 23
-1651.236951733584
 33
0.0
  0
POINT
  5
133
330
12D
100
AcDbEntity
  8
Defpoints
 62
     0
100
AcDbPoint
 10
8055.824043065209
 20
-1651.236951733584
 30
0.0
  0
POINT
  5
134
330
12D
100
AcDbEntity
  8
Defpoints
 62
     0
100
AcDbPoint
 10
8051.628348696686
 20
-1648.517365594848
 30
0.0
  0
ENDBLK
  5
135
330
12D
100
AcDbEntity
  8
0
 62
     9
100
AcDbBlockEnd
  0
BLOCK
  5
137
330
136
100
AcDbEntity
  8
0
 62
     9
100
AcDbBlockBegin
  2
*D26
 70
     1
 10
0.0
 20
0.0
 30
0.0
  3
*D26
  1

  0
LINE
  5
138
330
136
100
AcDbEntity
  8
cotas
100
AcDbLine
 10
7883.381237439808
 20
-1578.016634243055
 30
0.0
 11
7907.285834986845
 21
-1604.921900272435
 31
0.0
  0
MTEXT
  5
139
330
136
100
AcDbEntity
  8
cotas
100
AcDbMText
 10
7899.566042253154
 20
-1581.020407849574
 30
0.0
 40
10.0
 41
0.0
 71
     5
 72
     1
  1
R5
  7
SANINDUSA
 11
0.6641900680637293
 21
-0.7475637454327884
 31
0.0
 73
     1
 44
1.0
1001
ACAD
1000
MTEXTBEGIN
1070
    73
1070
     1
1070
    44
1040
1.0
1070
    74
1070
     0
1000
MTEXTEND
  0
SOLID
  5
13A
330
136
100
AcDbEntity
  8
cotas
100
AcDbTrace
 10
7908.531774562567
 20
-1603.814916825662
 30
0.0
 11
7906.039895411125
 21
-1606.028883719208
 31
0.0
 12
7913.927735667482
 22
-1612.397537726763
 32
0.0
 13
7913.927735667482
 23
-1612.397537726763
 33
0.0
  0
POINT
  5
13B
330
136
100
AcDbEntity
  8
Defpoints
 62
     0
100
AcDbPoint
 10
7913.927735667482
 20
-1612.397537726763
 30
0.0
  0
POINT
  5
13C
330
136
100
AcDbEntity
  8
Defpoints
 62
     0
100
AcDbPoint
 10
7910.606785327161
 20
-1608.659718999596
 30
0.0
  0
ENDBLK
  5
13D
330
136
100
AcDbEntity
  8
0
 62
     9
100
AcDbBlockEnd
  0
BLOCK
  5
13F
330
13E
100
AcDbEntity
  8
0
 62
     9
100
AcDbBlockBegin
  2
*D27
 70
     1
 10
0.0
 20
0.0
 30
0.0
  3
*D27
  1

  0
LINE
  5
140
330
13E
100
AcDbEntity
  8
cotas
100
AcDbLine
 10
8056.628348696692
 20
-1453.517365594848
 30
0.0
 11
8090.112061693346
 21
-1453.517365594848
 31
0.0
  0
LINE
  5
141
330
13E
100
AcDbEntity
  8
cotas
100
AcDbLine
 10
8046.628348696692
 20
-1465.517365594847
 30
0.0
 11
8090.112061693346
 21
-1465.517365594847
 31
0.0
  0
LINE
  5
142
330
13E
100
AcDbEntity
  8
cotas
100
AcDbLine
 10
8085.112061693347
 20
-1443.517365594848
 30
0.0
 11
8085.112061693347
 21
-1433.517365594848
 31
0.0
  0
LINE
  5
143
330
13E
100
AcDbEntity
  8
cotas
100
AcDbLine
 10
8085.112061693347
 20
-1475.517365594847
 30
0.0
 11
8085.112061693347
 21
-1510.245370967581
 31
0.0
  0
LINE
  5
144
330
13E
100
AcDbEntity
  8
cotas
100
AcDbLine
 10
8085.112061693347
 20
-1453.517365594848
 30
0.0
 11
8085.112061693347
 21
-1465.517365594847
 31
0.0
  0
SOLID
  5
145
330
13E
100
AcDbEntity
  8
cotas
100
AcDbTrace
 10
8083.44539502668
 20
-1443.517365594848
 30
0.0
 11
8086.778728360014
 21
-1443.517365594848
 31
0.0
 12
8085.112061693347
 22
-1453.517365594848
 32
0.0
 13
8085.112061693347
 23
-1453.517365594848
 33
0.0
  0
SOLID
  5
146
330
13E
100
AcDbEntity
  8
cotas
100
AcDbTrace
 10
8083.44539502668
 20
-1475.517365594847
 30
0.0
 11
8086.778728360014
 21
-1475.517365594847
 31
0.0
 12
8085.112061693347
 22
-1465.517365594847
 32
0.0
 13
8085.112061693347
 23
-1465.517365594847
 33
0.0
  0
MTEXT
  5
147
330
13E
100
AcDbEntity
  8
cotas
100
AcDbMText
 10
8075.007964984145
 20
-1497.881368281213
 30
0.0
 40
10.0
 41
0.0
 71
     5
 72
     1
  1
12
  7
SANINDUSA
 11
0.0000000000000001
 21
1.0
 31
0.0
 73
     1
 44
1.0
1001
ACAD
1000
MTEXTBEGIN
1070
    73
1070
     1
1070
    44
1040
1.0
1070
    74
1070
     0
1000
MTEXTEND
  0
POINT
  5
148
330
13E
100
AcDbEntity
  8
Defpoints
 62
     0
100
AcDbPoint
 10
8051.628348696693
 20
-1453.517365594848
 30
0.0
  0
POINT
  5
149
330
13E
100
AcDbEntity
  8
Defpoints
 62
     0
100
AcDbPoint
 10
8041.628348696692
 20
-1465.517365594847
 30
0.0
  0
POINT
  5
14A
330
13E
100
AcDbEntity
  8
Defpoints
 62
     0
100
AcDbPoint
 10
8085.112061693347
 20
-1465.517365594847
 30
0.0
  0
ENDBLK
  5
14B
330
13E
100
AcDbEntity
  8
0
 62
     9
100
AcDbBlockEnd
  0
BLOCK
  5
14D
330
14C
100
AcDbEntity
  8
0
 62
     9
100
AcDbBlockBegin
  2
*D28
 70
     1
 10
0.0
 20
0.0
 30
0.0
  3
*D28
  1

  0
LINE
  5
14E
330
14C
100
AcDbEntity
  8
cotas
100
AcDbLine
 10
8056.628348696692
 20
-1453.517365594848
 30
0.0
 11
8112.885667112974
 21
-1453.517365594848
 31
0.0
  0
LINE
  5
14F
330
14C
100
AcDbEntity
  8
cotas
100
AcDbLine
 10
7919.993267581571
 20
-1613.533876570322
 30
0.0
 11
8112.885667112974
 21
-1613.533876570322
 31
0.0
  0
LINE
  5
150
330
14C
100
AcDbEntity
  8
cotas
100
AcDbLine
 10
8107.885667112975
 20
-1463.517365594848
 30
0.0
 11
8107.885667112975
 21
-1603.533876570322
 31
0.0
  0
SOLID
  5
151
330
14C
100
AcDbEntity
  8
cotas
100
AcDbTrace
 10
8106.219000446309
 20
-1463.517365594848
 30
0.0
 11
8109.552333779642
 21
-1463.517365594848
 31
0.0
 12
8107.885667112975
 22
-1453.517365594848
 32
0.0
 13
8107.885667112975
 23
-1453.517365594848
 33
0.0
  0
SOLID
  5
152
330
14C
100
AcDbEntity
  8
cotas
100
AcDbTrace
 10
8106.219000446309
 20
-1603.533876570322
 30
0.0
 11
8109.552333779642
 21
-1603.533876570322
 31
0.0
 12
8107.885667112975
 22
-1613.533876570322
 32
0.0
 13
8107.885667112975
 23
-1613.533876570322
 33
0.0
  0
MTEXT
  5
153
330
14C
100
AcDbEntity
  8
cotas
100
AcDbMText
 10
8097.680831652935
 20
-1533.525621082584
 30
0.0
 40
10.0
 41
0.0
 71
     5
 72
     1
  1
160
  7
SANINDUSA
 11
0.0000000000000001
 21
1.0
 31
0.0
 73
     1
 44
1.0
1001
ACAD
1000
MTEXTBEGIN
1070
    73
1070
     1
1070
    44
1040
1.0
1070
    74
1070
     0
1000
MTEXTEND
  0
POINT
  5
154
330
14C
100
AcDbEntity
  8
Defpoints
 62
     0
100
AcDbPoint
 10
8051.628348696693
 20
-1453.517365594848
 30
0.0
  0
POINT
  5
155
330
14C
100
AcDbEntity
  8
Defpoints
 62
     0
100
AcDbPoint
 10
7914.993267581571
 20
-1613.533876570322
 30
0.0
  0
POINT
  5
156
330
14C
100
AcDbEntity
  8
Defpoints
 62
     0
100
AcDbPoint
 10
8107.885667112975
 20
-1613.533876570322
 30
0.0
  0
ENDBLK
  5
157
330
14C
100
AcDbEntity
  8
0
 62
     9
100
AcDbBlockEnd
  0
BLOCK
  5
159
330
158
100
AcDbEntity
  8
0
 62
     9
100
AcDbBlockBegin
  2
*D29
 70
     1
 10
0.0
 20
0.0
 30
0.0
  3
*D29
  1

  0
LINE
  5
15A
330
158
100
AcDbEntity
  8
cotas
100
AcDbLine
 10
7979.128348696692
 20
-1449.517365594847
 30
0.0
 11
7979.128348696692
 21
-1423.517365594848
 31
0.0
  0
LINE
  5
15B
330
158
100
AcDbEntity
  8
cotas
100
AcDbLine
 10
8014.128348696692
 20
-1449.517365594847
 30
0.0
 11
8014.128348696692
 21
-1423.517365594848
 31
0.0
  0
LINE
  5
15C
330
158
100
AcDbEntity
  8
cotas
100
AcDbLine
 10
7989.128348696692
 20
-1428.517365594848
 30
0.0
 11
8004.128348696692
 21
-1428.517365594848
 31
0.0
  0
SOLID
  5
15D
330
158
100
AcDbEntity
  8
cotas
100
AcDbTrace
 10
7989.128348696692
 20
-1426.850698928181
 30
0.0
 11
7989.128348696692
 21
-1430.184032261515
 31
0.0
 12
7979.128348696692
 22
-1428.517365594848
 32
0.0
 13
7979.128348696692
 23
-1428.517365594848
 33
0.0
  0
SOLID
  5
15E
330
158
100
AcDbEntity
  8
cotas
100
AcDbTrace
 10
8004.128348696692
 20
-1426.850698928181
 30
0.0
 11
8004.128348696692
 21
-1430.184032261515
 31
0.0
 12
8014.128348696692
 22
-1428.517365594848
 32
0.0
 13
8014.128348696692
 23
-1428.517365594848
 33
0.0
  0
MTEXT
  5
15F
330
158
100
AcDbEntity
  8
cotas
100
AcDbMText
 10
7996.628348696693
 20
-1417.916291048172
 30
0.0
 40
10.0
 41
0.0
 71
     5
 72
     1
  1
ø35
  7
SANINDUSA
 73
     1
 44
1.0
1001
ACAD
1000
MTEXTBEGIN
1070
    73
1070
     1
1070
    44
1040
1.0
1070
    74
1070
     0
1000
MTEXTEND
  0
POINT
  5
160
330
158
100
AcDbEntity
  8
Defpoints
 62
     0
100
AcDbPoint
 10
7979.128348696692
 20
-1454.517365594847
 30
0.0
  0
POINT
  5
161
330
158
100
AcDbEntity
  8
Defpoints
 62
     0
100
AcDbPoint
 10
8014.128348696692
 20
-1454.517365594847
 30
0.0
  0
POINT
  5
162
330
158
100
AcDbEntity
  8
Defpoints
 62
     0
100
AcDbPoint
 10
8014.128348696692
 20
-1428.517365594848
 30
0.0
  0
ENDBLK
  5
163
330
158
100
AcDbEntity
  8
0
 62
     9
100
AcDbBlockEnd
  0
BLOCK
  5
165
330
164
100
AcDbEntity
  8
0
 62
     9
100
AcDbBlockBegin
  2
*D30
 70
     1
 10
0.0
 20
0.0
 30
0.0
  3
*D30
  1

  0
LINE
  5
166
330
164
100
AcDbEntity
  8
cotas
100
AcDbLine
 10
7910.084803049032
 20
-1417.965834651434
 30
0.0
 11
7931.904077132509
 21
-1446.588245494469
 31
0.0
  0
MTEXT
  5
167
330
164
100
AcDbEntity
  8
cotas
100
AcDbMText
 10
7925.998725882561
 20
-1422.175065314372
 30
0.0
 40
10.0
 41
0.0
 71
     5
 72
     1
  1
R5
  7
SANINDUSA
 11
0.6062492836405415
 21
-0.7952746733584128
 31
0.0
 73
     1
 44
1.0
1001
ACAD
1000
MTEXTBEGIN
1070
    73
1070
     1
1070
    44
1040
1.0
1070
    74
1070
     0
1000
MTEXTEND
  0
LINE
  5
168
330
164
100
AcDbEntity
  8
cotas
100
AcDbLine
 10
7940.997816387119
 20
-1458.517365594847
 30
0.0
 11
7937.966569968914
 21
-1454.540992228053
 31
0.0
  0
SOLID
  5
169
330
164
100
AcDbEntity
  8
cotas
100
AcDbTrace
 10
7933.229534921441
 20
-1445.577830021735
 30
0.0
 11
7930.578619343577
 21
-1447.598660967203
 31
0.0
 12
7937.966569968914
 22
-1454.540992228053
 32
0.0
 13
7937.966569968914
 23
-1454.540992228053
 33
0.0
  0
POINT
  5
16A
330
164
100
AcDbEntity
  8
Defpoints
 62
     0
100
AcDbPoint
 10
7937.966569968914
 20
-1454.540992228053
 30
0.0
  0
POINT
  5
16B
330
164
100
AcDbEntity
  8
Defpoints
 62
     0
100
AcDbPoint
 10
7940.997816387119
 20
-1458.517365594847
 30
0.0
  0
ENDBLK
  5
16C
330
164
100
AcDbEntity
  8
0
 62
     9
100
AcDbBlockEnd
  0
BLOCK
  5
16E
330
16D
100
AcDbEntity
  8
0
100
AcDbBlockBegin
  2
*D31
 70
     1
 10
0.0
 20
0.0
 30
0.0
  3
*D31
  1

  0
LINE
  5
16F
330
16D
100
AcDbEntity
  8
cotas
100
AcDbLine
 10
5901.041879124653
 20
-1608.865739058499
 30
0.0
 11
5901.041879124653
 21
-1458.338343305527
 31
0.0
  0
LINE
  5
170
330
16D
100
AcDbEntity
  8
cotas
100
AcDbLine
 10
5841.041879124652
 20
-1515.838343305526
 30
0.0
 11
5841.041879124652
 21
-1458.338343305527
 31
0.0
  0
LINE
  5
171
330
16D
100
AcDbEntity
  8
cotas
100
AcDbLine
 10
5891.041879124653
 20
-1463.338343305527
 30
0.0
 11
5851.041879124653
 21
-1463.338343305527
 31
0.0
  0
SOLID
  5
172
330
16D
100
AcDbEntity
  8
cotas
100
AcDbTrace
 10
5891.041879124653
 20
-1461.67167663886
 30
0.0
 11
5891.041879124653
 21
-1465.005009972194
 31
0.0
 12
5901.041879124653
 22
-1463.338343305527
 32
0.0
 13
5901.041879124653
 23
-1463.338343305527
 33
0.0
  0
SOLID
  5
173
330
16D
100
AcDbEntity
  8
cotas
100
AcDbTrace
 10
5851.041879124653
 20
-1461.67167663886
 30
0.0
 11
5851.041879124653
 21
-1465.005009972194
 31
0.0
 12
5841.041879124652
 22
-1463.338343305527
 32
0.0
 13
5841.041879124652
 23
-1463.338343305527
 33
0.0
  0
MTEXT
  5
174
330
16D
100
AcDbEntity
  8
cotas
100
AcDbMText
 10
5871.041879124653
 20
-1453.133507845486
 30
0.0
 40
10.0
 41
0.0
 71
     5
 72
     1
  1
60
  7
SANINDUSA
 73
     1
 44
1.0
1001
ACAD
1000
MTEXTBEGIN
1070
    73
1070
     1
1070
    44
1040
1.0
1070
    74
1070
     0
1000
MTEXTEND
  0
POINT
  5
175
330
16D
100
AcDbEntity
  8
Defpoints
 62
     0
100
AcDbPoint
 10
5901.041879124653
 20
-1613.865739058499
 30
0.0
  0
POINT
  5
176
330
16D
100
AcDbEntity
  8
Defpoints
 62
     0
100
AcDbPoint
 10
5841.041879124652
 20
-1520.838343305526
 30
0.0
  0
POINT
  5
177
330
16D
100
AcDbEntity
  8
Defpoints
 62
     0
100
AcDbPoint
 10
5841.041879124652
 20
-1463.338343305527
 30
0.0
  0
ENDBLK
  5
178
330
16D
100
AcDbEntity
  8
0
100
AcDbBlockEnd
  0
BLOCK
  5
17A
330
179
100
AcDbEntity
  8
0
100
AcDbBlockBegin
  2
*D32
 70
     1
 10
0.0
 20
0.0
 30
0.0
  3
*D32
  1

  0
LINE
  5
17B
330
179
100
AcDbEntity
  8
cotas
100
AcDbLine
 10
5901.041879124653
 20
-1608.865739058499
 30
0.0
 11
5901.041879124653
 21
-1458.338343305527
 31
0.0
  0
LINE
  5
17C
330
179
100
AcDbEntity
  8
cotas
100
AcDbLine
 10
5961.642907482344
 20
-1523.894287661795
 30
0.0
 11
5961.642907482344
 21
-1458.338343305527
 31
0.0
  0
LINE
  5
17D
330
179
100
AcDbEntity
  8
cotas
100
AcDbLine
 10
5911.041879124653
 20
-1463.338343305527
 30
0.0
 11
5951.642907482344
 21
-1463.338343305527
 31
0.0
  0
SOLID
  5
17E
330
179
100
AcDbEntity
  8
cotas
100
AcDbTrace
 10
5911.041879124653
 20
-1461.67167663886
 30
0.0
 11
5911.041879124653
 21
-1465.005009972194
 31
0.0
 12
5901.041879124653
 22
-1463.338343305527
 32
0.0
 13
5901.041879124653
 23
-1463.338343305527
 33
0.0
  0
SOLID
  5
17F
330
179
100
AcDbEntity
  8
cotas
100
AcDbTrace
 10
5951.642907482344
 20
-1461.67167663886
 30
0.0
 11
5951.642907482344
 21
-1465.005009972194
 31
0.0
 12
5961.642907482344
 22
-1463.338343305527
 32
0.0
 13
5961.642907482344
 23
-1463.338343305527
 33
0.0
  0
MTEXT
  5
180
330
179
100
AcDbEntity
  8
cotas
100
AcDbMText
 10
5931.342393303498
 20
-1451.995159961001
 30
0.0
 40
10.0
 41
0.0
 71
     5
 72
     1
  1
60,6
  7
SANINDUSA
 73
     1
 44
1.0
1001
ACAD
1000
MTEXTBEGIN
1070
    73
1070
     1
1070
    44
1040
1.0
1070
    74
1070
     0
1000
MTEXTEND
  0
POINT
  5
181
330
179
100
AcDbEntity
  8
Defpoints
 62
     0
100
AcDbPoint
 10
5901.041879124653
 20
-1613.865739058499
 30
0.0
  0
POINT
  5
182
330
179
100
AcDbEntity
  8
Defpoints
 62
     0
100
AcDbPoint
 10
5961.642907482344
 20
-1528.894287661795
 30
0.0
  0
POINT
  5
183
330
179
100
AcDbEntity
  8
Defpoints
 62
     0
100
AcDbPoint
 10
5961.642907482344
 20
-1463.338343305527
 30
0.0
  0
ENDBLK
  5
184
330
179
100
AcDbEntity
  8
0
100
AcDbBlockEnd
  0
BLOCK
  5
186
330
185
100
AcDbEntity
  8
0
100
AcDbBlockBegin
  2
*D33
 70
     1
 10
0.0
 20
0.0
 30
0.0
  3
*D33
  1

  0
LINE
  5
187
330
185
100
AcDbEntity
  8
cotas
100
AcDbLine
 10
7193.263754081342
 20
-1618.536274919499
 30
0.0
 11
7193.263754081342
 21
-1719.212098848777
 31
0.0
  0
LINE
  5
188
330
185
100
AcDbEntity
  8
cotas
100
AcDbLine
 10
7914.993267581571
 20
-1618.533876570322
 30
0.0
 11
7914.993267581571
 21
-1719.212098848777
 31
0.0
  0
LINE
  5
189
330
185
100
AcDbEntity
  8
cotas
100
AcDbLine
 10
7203.263754081342
 20
-1714.212098848778
 30
0.0
 11
7904.993267581573
 21
-1714.212098848778
 31
0.0
  0
SOLID
  5
18A
330
185
100
AcDbEntity
  8
cotas
100
AcDbTrace
 10
7203.263754081342
 20
-1712.545432182111
 30
0.0
 11
7203.263754081342
 21
-1715.878765515444
 31
0.0
 12
7193.263754081342
 22
-1714.212098848778
 32
0.0
 13
7193.263754081342
 23
-1714.212098848778
 33
0.0
  0
SOLID
  5
18B
330
185
100
AcDbEntity
  8
cotas
100
AcDbTrace
 10
7904.993267581573
 20
-1712.545432182111
 30
0.0
 11
7904.993267581573
 21
-1715.878765515444
 31
0.0
 12
7914.993267581571
 22
-1714.212098848778
 32
0.0
 13
7914.993267581571
 23
-1714.212098848778
 33
0.0
  0
MTEXT
  5
18C
330
185
100
AcDbEntity
  8
cotas
100
AcDbMText
 10
7554.128510831457
 20
-1702.86555754589
 30
0.0
 40
10.0
 41
0.0
 71
     5
 72
     1
  1
721,7
  7
SANINDUSA
 73
     1
 44
1.0
1001
ACAD
1000
MTEXTBEGIN
1070
    73
1070
     1
1070
    44
1040
1.0
1070
    74
1070
     0
1000
MTEXTEND
  0
POINT
  5
18D
330
185
100
AcDbEntity
  8
Defpoints
 62
     0
100
AcDbPoint
 10
7193.263754081342
 20
-1613.536274919499
 30
0.0
  0
POINT
  5
18E
330
185
100
AcDbEntity
  8
Defpoints
 62
     0
100
AcDbPoint
 10
7914.993267581571
 20
-1613.533876570322
 30
0.0
  0
POINT
  5
18F
330
185
100
AcDbEntity
  8
Defpoints
 62
     0
100
AcDbPoint
 10
7914.993267581571
 20
-1714.212098848778
 30
0.0
  0
ENDBLK
  5
190
330
185
100
AcDbEntity
  8
0
100
AcDbBlockEnd
  0
BLOCK
  5
192
330
191
100
AcDbEntity
  8
0
100
AcDbBlockBegin
  2
*D34
 70
     1
 10
0.0
 20
0.0
 30
0.0
  3
*D34
  1

  0
ARC
  5
193
330
191
100
AcDbEntity
  8
cotas
100
AcDbCircle
 10
8030.703962373037
 20
-1653.517365594848
 30
0.0
 40
70.03235205237681
100
AcDbArc
 50
99.92829665467434
 51
171.8117033453257
  0
SOLID
  5
194
330
191
100
AcDbEntity
  8
cotas
100
AcDbTrace
 10
8018.459877341197
 20
-1582.875763519527
 30
0.0
 11
8018.798708104009
 21
-1586.191831194543
 31
0.0
 12
8028.577495747649
 22
-1583.517305068594
 32
0.0
 13
8028.577495747649
 23
-1583.517305068594
 33
0.0
  0
SOLID
  5
195
330
191
100
AcDbEntity
  8
cotas
100
AcDbTrace
 10
7963.047979530852
 20
-1643.661877420504
 30
0.0
 11
7959.72315259808
 21
-1643.42389217257
 31
0.0
 12
7960.671610320661
 22
-1653.517365594848
 32
0.0
 13
7960.671610320661
 23
-1653.517365594848
 33
0.0
  0
MTEXT
  5
196
330
191
100
AcDbEntity
  8
cotas
100
AcDbMText
 10
7972.286069105317
 20
-1596.847146493595
 30
0.0
 40
10.0
 41
0.0
 71
     5
 72
     1
  1
88,3°
  7
SANINDUSA
 11
0.6962887112311459
 21
0.7177618202524219
 31
0.0
 73
     1
 44
1.0
1001
ACAD
1000
MTEXTBEGIN
1070
    73
1070
     1
1070
    44
1040
1.0
1070
    74
1070
     0
1000
MTEXTEND
  0
POINT
  5
197
330
191
100
AcDbEntity
  8
Defpoints
 62
     0
100
AcDbPoint
 10
7994.467141620122
 20
-1593.588881918811
 30
0.0
  0
POINT
  5
198
330
191
100
AcDbEntity
  8
Defpoints
 62
     0
100
AcDbPoint
 10
8030.404793696861
 20
-1643.669185900969
 30
0.0
  0
POINT
  5
199
330
191
100
AcDbEntity
  8
Defpoints
 62
     0
100
AcDbPoint
 10
8025.203074711846
 20
-1653.517365594848
 30
0.0
  0
POINT
  5
19A
330
191
100
AcDbEntity
  8
Defpoints
 62
     0
100
AcDbPoint
 10
7925.506063122992
 20
-1653.517365594848
 30
0.0
  0
POINT
  5
19B
330
191
100
AcDbEntity
  8
Defpoints
 62
     0
100
AcDbPoint
 10
8028.169990588276
 20
-1570.102852436098
 30
0.0
  0
ENDBLK
  5
19C
330
191
100
AcDbEntity
  8
0
100
AcDbBlockEnd
  0
BLOCK
  5
19E
330
19D
100
AcDbEntity
  8
0
100
AcDbBlockBegin
  2
*D35
 70
     1
 10
0.0
 20
0.0
 30
0.0
  3
*D35
  1

  0
LINE
  5
19F
330
19D
100
AcDbEntity
  8
cotas
100
AcDbLine
 10
7530.628348696715
 20
-1649.425326695617
 30
0.0
 11
7530.628348696715
 21
-1685.0094902455
 31
0.0
  0
LINE
  5
1A0
330
19D
100
AcDbEntity
  8
cotas
100
AcDbLine
 10
7577.628348696714
 20
-1649.425326695617
 30
0.0
 11
7577.628348696714
 21
-1685.0094902455
 31
0.0
  0
LINE
  5
1A1
330
19D
100
AcDbEntity
  8
cotas
100
AcDbLine
 10
7540.628348696714
 20
-1680.0094902455
 30
0.0
 11
7567.628348696714
 21
-1680.0094902455
 31
0.0
  0
SOLID
  5
1A2
330
19D
100
AcDbEntity
  8
cotas
100
AcDbTrace
 10
7540.628348696714
 20
-1678.342823578833
 30
0.0
 11
7540.628348696714
 21
-1681.676156912167
 31
0.0
 12
7530.628348696715
 22
-1680.0094902455
 32
0.0
 13
7530.628348696715
 23
-1680.0094902455
 33
0.0
  0
SOLID
  5
1A3
330
19D
100
AcDbEntity
  8
cotas
100
AcDbTrace
 10
7567.628348696714
 20
-1678.342823578833
 30
0.0
 11
7567.628348696714
 21
-1681.676156912167
 31
0.0
 12
7577.628348696714
 22
-1680.0094902455
 32
0.0
 13
7577.628348696714
 23
-1680.0094902455
 33
0.0
  0
MTEXT
  5
1A4
330
19D
100
AcDbEntity
  8
cotas
100
AcDbMText
 10
7554.128348696714
 20
-1669.512512408025
 30
0.0
 40
10.0
 41
0.0
 71
     5
 72
     1
  1
ø47
  7
SANINDUSA
 73
     1
 44
1.0
1001
ACAD
1000
MTEXTBEGIN
1070
    73
1070
     1
1070
    44
1040
1.0
1070
    74
1070
     0
1000
MTEXTEND
  0
POINT
  5
1A5
330
19D
100
AcDbEntity
  8
Defpoints
 62
     0
100
AcDbPoint
 10
7530.628348696715
 20
-1644.425326695617
 30
0.0
  0
POINT
  5
1A6
330
19D
100
AcDbEntity
  8
Defpoints
 62
     0
100
AcDbPoint
 10
7577.628348696714
 20
-1644.425326695617
 30
0.0
  0
POINT
  5
1A7
330
19D
100
AcDbEntity
  8
Defpoints
 62
     0
100
AcDbPoint
 10
7577.628348696714
 20
-1680.0094902455
 30
0.0
  0
ENDBLK
  5
1A8
330
19D
100
AcDbEntity
  8
0
100
AcDbBlockEnd
  0
BLOCK
  5
1AA
330
1A9
100
AcDbEntity
  8
0
100
AcDbBlockBegin
  2
*D36
 70
     1
 10
0.0
 20
0.0
 30
0.0
  3
*D36
  1

  0
LINE
  5
1AB
330
1A9
100
AcDbEntity
  8
cotas
100
AcDbLine
 10
7523.708337414749
 20
-1622.017710521037
 30
0.0
 11
7523.754414028028
 21
-1622.017710521037
 31
0.0
  0
LINE
  5
1AC
330
1A9
100
AcDbEntity
  8
cotas
100
AcDbLine
 10
7549.128348696715
 20
-1456.0755184434
 30
0.0
 11
7513.754414028027
 21
-1456.0755184434
 31
0.0
  0
LINE
  5
1AD
330
1A9
100
AcDbEntity
  8
cotas
100
AcDbLine
 10
7518.754414028027
 20
-1612.017710521037
 30
0.0
 11
7518.754414028027
 21
-1466.0755184434
 31
0.0
  0
SOLID
  5
1AE
330
1A9
100
AcDbEntity
  8
cotas
100
AcDbTrace
 10
7517.08774736136
 20
-1612.017710521037
 30
0.0
 11
7520.421080694695
 21
-1612.017710521037
 31
0.0
 12
7518.754414028027
 22
-1622.017710521037
 32
0.0
 13
7518.754414028027
 23
-1622.017710521037
 33
0.0
  0
SOLID
  5
1AF
330
1A9
100
AcDbEntity
  8
cotas
100
AcDbTrace
 10
7517.08774736136
 20
-1466.0755184434
 30
0.0
 11
7520.421080694695
 21
-1466.0755184434
 31
0.0
 12
7518.754414028027
 22
-1456.0755184434
 32
0.0
 13
7518.754414028027
 23
-1456.0755184434
 33
0.0
  0
MTEXT
  5
1B0
330
1A9
100
AcDbEntity
  8
cotas
100
AcDbMText
 10
7508.556294484709
 20
-1539.046614482217
 30
0.0
 40
10.0
 41
0.0
 71
     5
 72
     1
  1
166
  7
SANINDUSA
 11
0.0000000000000001
 21
1.0
 31
0.0
 73
     1
 44
1.0
1001
ACAD
1000
MTEXTBEGIN
1070
    73
1070
     1
1070
    44
1040
1.0
1070
    74
1070
     0
1000
MTEXTEND
  0
POINT
  5
1B1
330
1A9
100
AcDbEntity
  8
Defpoints
 62
     0
100
AcDbPoint
 10
7518.708337414749
 20
-1622.017710521037
 30
0.0
  0
POINT
  5
1B2
330
1A9
100
AcDbEntity
  8
Defpoints
 62
     0
100
AcDbPoint
 10
7554.128348696714
 20
-1456.0755184434
 30
0.0
  0
POINT
  5
1B3
330
1A9
100
AcDbEntity
  8
Defpoints
 62
     0
100
AcDbPoint
 10
7518.754414028027
 20
-1456.0755184434
 30
0.0
  0
ENDBLK
  5
1B4
330
1A9
100
AcDbEntity
  8
0
100
AcDbBlockEnd
  0
BLOCK
  5
1B6
330
1B5
100
AcDbEntity
  8
0
100
AcDbBlockBegin
  2
*D37
 70
     1
 10
0.0
 20
0.0
 30
0.0
  3
*D37
  1

  0
LINE
  5
1B7
330
1B5
100
AcDbEntity
  8
cotas
100
AcDbLine
 10
7051.628348696692
 20
-1453.51736559485
 30
0.0
 11
7018.650481944714
 21
-1453.51736559485
 31
0.0
  0
LINE
  5
1B8
330
1B5
100
AcDbEntity
  8
cotas
100
AcDbLine
 10
7188.263754081342
 20
-1613.536274919501
 30
0.0
 11
7018.650481944714
 21
-1613.536274919501
 31
0.0
  0
LINE
  5
1B9
330
1B5
100
AcDbEntity
  8
cotas
100
AcDbLine
 10
7023.650481944713
 20
-1463.51736559485
 30
0.0
 11
7023.650481944713
 21
-1603.536274919501
 31
0.0
  0
SOLID
  5
1BA
330
1B5
100
AcDbEntity
  8
cotas
100
AcDbTrace
 10
7021.983815278047
 20
-1463.51736559485
 30
0.0
 11
7025.317148611382
 21
-1463.51736559485
 31
0.0
 12
7023.650481944713
 22
-1453.51736559485
 32
0.0
 13
7023.650481944713
 23
-1453.51736559485
 33
0.0
  0
SOLID
  5
1BB
330
1B5
100
AcDbEntity
  8
cotas
100
AcDbTrace
 10
7021.983815278047
 20
-1603.536274919501
 30
0.0
 11
7025.317148611382
 21
-1603.536274919501
 31
0.0
 12
7023.650481944713
 22
-1613.536274919501
 32
0.0
 13
7023.650481944713
 23
-1613.536274919501
 33
0.0
  0
MTEXT
  5
1BC
330
1B5
100
AcDbEntity
  8
cotas
100
AcDbMText
 10
7013.445646484673
 20
-1533.526820257175
 30
0.0
 40
10.0
 41
0.0
 71
     5
 72
     1
  1
160
  7
SANINDUSA
 11
0.0000000000000001
 21
1.0
 31
0.0
 73
     1
 44
1.0
1001
ACAD
1000
MTEXTBEGIN
1070
    73
1070
     1
1070
    44
1040
1.0
1070
    74
1070
     0
1000
MTEXTEND
  0
POINT
  5
1BD
330
1B5
100
AcDbEntity
  8
Defpoints
 62
     0
100
AcDbPoint
 10
7056.628348696692
 20
-1453.51736559485
 30
0.0
  0
POINT
  5
1BE
330
1B5
100
AcDbEntity
  8
Defpoints
 62
     0
100
AcDbPoint
 10
7193.263754081342
 20
-1613.536274919501
 30
0.0
  0
POINT
  5
1BF
330
1B5
100
AcDbEntity
  8
Defpoints
 62
     0
100
AcDbPoint
 10
7023.650481944713
 20
-1613.536274919501
 30
0.0
  0
ENDBLK
  5
1C0
330
1B5
100
AcDbEntity
  8
0
100
AcDbBlockEnd
  0
BLOCK
  5
1C2
330
1C1
100
AcDbEntity
  8
0
100
AcDbBlockBegin
  2
*D38
 70
     1
 10
0.0
 20
0.0
 30
0.0
  3
*D38
  1

  0
LINE
  5
1C3
330
1C1
100
AcDbEntity
  8
cotas
100
AcDbLine
 10
7052.684973023719
 20
-1653.51736559485
 30
0.0
 11
7018.650481944714
 21
-1653.51736559485
 31
0.0
  0
LINE
  5
1C4
330
1C1
100
AcDbEntity
  8
cotas
100
AcDbLine
 10
7023.650481944713
 20
-1643.51736559485
 30
0.0
 11
7023.650481944713
 21
-1623.536274919501
 31
0.0
  0
SOLID
  5
1C5
330
1C1
100
AcDbEntity
  8
cotas
100
AcDbTrace
 10
7021.983815278047
 20
-1643.51736559485
 30
0.0
 11
7025.317148611382
 21
-1643.51736559485
 31
0.0
 12
7023.650481944713
 22
-1653.51736559485
 32
0.0
 13
7023.650481944713
 23
-1653.51736559485
 33
0.0
  0
SOLID
  5
1C6
330
1C1
100
AcDbEntity
  8
cotas
100
AcDbTrace
 10
7021.983815278047
 20
-1623.536274919501
 30
0.0
 11
7025.317148611382
 21
-1623.536274919501
 31
0.0
 12
7023.650481944713
 22
-1613.536274919501
 32
0.0
 13
7023.650481944713
 23
-1613.536274919501
 33
0.0
  0
MTEXT
  5
1C7
330
1C1
100
AcDbEntity
  8
cotas
100
AcDbMText
 10
7013.445646484673
 20
-1633.526820257175
 30
0.0
 40
10.0
 41
0.0
 71
     5
 72
     1
  1
40
  7
SANINDUSA
 11
0.0000000000000001
 21
1.0
 31
0.0
 73
     1
 44
1.0
1001
ACAD
1000
MTEXTBEGIN
1070
    73
1070
     1
1070
    44
1040
1.0
1070
    74
1070
     0
1000
MTEXTEND
  0
POINT
  5
1C8
330
1C1
100
AcDbEntity
  8
Defpoints
 62
     0
100
AcDbPoint
 10
7057.684973023718
 20
-1653.51736559485
 30
0.0
  0
POINT
  5
1C9
330
1C1
100
AcDbEntity
  8
Defpoints
 62
     0
100
AcDbPoint
 10
7023.650481944713
 20
-1613.536274919501
 30
0.0
  0
POINT
  5
1CA
330
1C1
100
AcDbEntity
  8
Defpoints
 62
     0
100
AcDbPoint
 10
7023.650481944713
 20
-1613.536274919501
 30
0.0
  0
ENDBLK
  5
1CB
330
1C1
100
AcDbEntity
  8
0
100
AcDbBlockEnd
  0
BLOCK
  5
1CD
330
1CC
100
AcDbEntity
  8
0
100
AcDbBlockBegin
  2
*D39
 70
     1
 10
0.0
 20
0.0
 30
0.0
  3
*D39
  1

  0
LINE
  5
1CE
330
1CC
100
AcDbEntity
  8
cotas
100
AcDbLine
 10
7018.256603388133
 20
-1424.936862062751
 30
0.0
 11
7045.340460234839
 21
-1448.638925734602
 31
0.0
  0
MTEXT
  5
1CF
330
1CC
100
AcDbEntity
  8
cotas
100
AcDbMText
 10
7034.69008310313
 20
-1425.891486167839
 30
0.0
 40
10.0
 41
0.0
 71
     5
 72
     1
  1
R5
  7
SANINDUSA
 11
0.7525258974574505
 21
-0.6585626573499737
 31
0.0
 73
     1
 44
1.0
1001
ACAD
1000
MTEXTBEGIN
1070
    73
1070
     1
1070
    44
1040
1.0
1070
    74
1070
     0
1000
MTEXTEND
  0
LINE
  5
1D0
330
1CC
100
AcDbEntity
  8
cotas
100
AcDbLine
 10
7056.628348696697
 20
-1458.51736559485
 30
0.0
 11
7052.865719209413
 21
-1455.224552308102
 31
0.0
  0
SOLID
  5
1D1
330
1CC
100
AcDbEntity
  8
cotas
100
AcDbTrace
 10
7046.438064663755
 20
-1447.384715905507
 30
0.0
 11
7044.242855805922
 21
-1449.893135563698
 31
0.0
 12
7052.865719209413
 22
-1455.224552308102
 32
0.0
 13
7052.865719209413
 23
-1455.224552308102
 33
0.0
  0
POINT
  5
1D2
330
1CC
100
AcDbEntity
  8
Defpoints
 62
     0
100
AcDbPoint
 10
7052.865719209413
 20
-1455.224552308102
 30
0.0
  0
POINT
  5
1D3
330
1CC
100
AcDbEntity
  8
Defpoints
 62
     0
100
AcDbPoint
 10
7056.628348696697
 20
-1458.51736559485
 30
0.0
  0
ENDBLK
  5
1D4
330
1CC
100
AcDbEntity
  8
0
100
AcDbBlockEnd
  0
BLOCK
  5
1D6
330
1D5
100
AcDbEntity
  8
0
100
AcDbBlockBegin
  2
*D40
 70
     1
 10
0.0
 20
0.0
 30
0.0
  3
*D40
  1

  0
LINE
  5
1D7
330
1D5
100
AcDbEntity
  8
cotas
100
AcDbLine
 10
7018.793651610952
 20
-1682.701817498091
 30
0.0
 11
7045.498444720267
 21
-1658.573470082946
 31
0.0
  0
MTEXT
  5
1D8
330
1D5
100
AcDbEntity
  8
cotas
100
AcDbMText
 10
7021.662223355763
 20
-1666.492503543757
 30
0.0
 40
10.0
 41
0.0
 71
     5
 72
     1
  1
R5
  7
SANINDUSA
 11
0.7419935984282726
 21
0.6704069658733145
 31
0.0
 73
     1
 44
1.0
1001
ACAD
1000
MTEXTBEGIN
1070
    73
1070
     1
1070
    44
1040
1.0
1070
    74
1070
     0
1000
MTEXTEND
  0
LINE
  5
1D9
330
1D5
100
AcDbEntity
  8
cotas
100
AcDbLine
 10
7056.62834869669
 20
-1648.517365594846
 30
0.0
 11
7052.91838070455
 21
-1651.869400424213
 31
0.0
  0
SOLID
  5
1DA
330
1D5
100
AcDbEntity
  8
cotas
100
AcDbTrace
 10
7044.381099777145
 20
-1657.336814085565
 30
0.0
 11
7046.61578966339
 21
-1659.810126080327
 31
0.0
 12
7052.91838070455
 22
-1651.869400424213
 32
0.0
 13
7052.91838070455
 23
-1651.869400424213
 33
0.0
  0
POINT
  5
1DB
330
1D5
100
AcDbEntity
  8
Defpoints
 62
     0
100
AcDbPoint
 10
7052.91838070455
 20
-1651.869400424213
 30
0.0
  0
POINT
  5
1DC
330
1D5
100
AcDbEntity
  8
Defpoints
 62
     0
100
AcDbPoint
 10
7056.62834869669
 20
-1648.517365594846
 30
0.0
  0
ENDBLK
  5
1DD
330
1D5
100
AcDbEntity
  8
0
100
AcDbBlockEnd
  0
BLOCK
  5
1DF
330
1DE
100
AcDbEntity
  8
0
100
AcDbBlockBegin
  2
*D41
 70
     1
 10
0.0
 20
0.0
 30
0.0
  3
*D41
  1

  0
LINE
  5
1E0
330
1DE
100
AcDbEntity
  8
cotas
100
AcDbLine
 10
7227.462866924991
 20
-1580.416914337562
 30
0.0
 11
7201.271130270874
 21
-1605.101242463703
 31
0.0
  0
MTEXT
  5
1E1
330
1DE
100
AcDbEntity
  8
cotas
100
AcDbMText
 10
7211.075745803235
 20
-1581.976665621003
 30
0.0
 40
10.0
 41
0.0
 71
     5
 72
     1
  1
R5
  7
SANINDUSA
 11
0.7277383071090929
 21
0.6858549091214496
 31
0.0
 73
     1
 44
1.0
1001
ACAD
1000
MTEXTBEGIN
1070
    73
1070
     1
1070
    44
1040
1.0
1070
    74
1070
     0
1000
MTEXTEND
  0
SOLID
  5
1E2
330
1DE
100
AcDbEntity
  8
cotas
100
AcDbTrace
 10
7200.12803875567
 20
-1603.888345285187
 30
0.0
 11
7202.414221786077
 21
-1606.314139642218
 31
0.0
 12
7193.993747199782
 22
-1611.959791554917
 32
0.0
 13
7193.993747199782
 23
-1611.959791554917
 33
0.0
  0
POINT
  5
1E3
330
1DE
100
AcDbEntity
  8
Defpoints
 62
     0
100
AcDbPoint
 10
7193.993747199782
 20
-1611.959791554917
 30
0.0
  0
POINT
  5
1E4
330
1DE
100
AcDbEntity
  8
Defpoints
 62
     0
100
AcDbPoint
 10
7197.632427825002
 20
-1608.530527291716
 30
0.0
  0
ENDBLK
  5
1E5
330
1DE
100
AcDbEntity
  8
0
100
AcDbBlockEnd
  0
BLOCK
  5
1E7
330
1E6
100
AcDbEntity
  8
0
100
AcDbBlockBegin
  2
*D42
 70
     1
 10
0.0
 20
0.0
 30
0.0
  3
*D42
  1

  0
LINE
  5
1E8
330
1E6
100
AcDbEntity
  8
cotas
100
AcDbLine
 10
7094.128348696692
 20
-1449.517365594849
 30
0.0
 11
7094.128348696692
 21
-1423.51736559485
 31
0.0
  0
LINE
  5
1E9
330
1E6
100
AcDbEntity
  8
cotas
100
AcDbLine
 10
7129.128348696692
 20
-1449.517365594849
 30
0.0
 11
7129.128348696692
 21
-1423.51736559485
 31
0.0
  0
LINE
  5
1EA
330
1E6
100
AcDbEntity
  8
cotas
100
AcDbLine
 10
7104.128348696692
 20
-1428.51736559485
 30
0.0
 11
7119.128348696692
 21
-1428.51736559485
 31
0.0
  0
SOLID
  5
1EB
330
1E6
100
AcDbEntity
  8
cotas
100
AcDbTrace
 10
7104.128348696692
 20
-1426.850698928183
 30
0.0
 11
7104.128348696692
 21
-1430.184032261517
 31
0.0
 12
7094.128348696692
 22
-1428.51736559485
 32
0.0
 13
7094.128348696692
 23
-1428.51736559485
 33
0.0
  0
SOLID
  5
1EC
330
1E6
100
AcDbEntity
  8
cotas
100
AcDbTrace
 10
7119.128348696692
 20
-1426.850698928183
 30
0.0
 11
7119.128348696692
 21
-1430.184032261517
 31
0.0
 12
7129.128348696692
 22
-1428.51736559485
 32
0.0
 13
7129.128348696692
 23
-1428.51736559485
 33
0.0
  0
MTEXT
  5
1ED
330
1E6
100
AcDbEntity
  8
cotas
100
AcDbMText
 10
7111.628348696692
 20
-1417.916291048175
 30
0.0
 40
10.0
 41
0.0
 71
     5
 72
     1
  1
ø35
  7
SANINDUSA
 73
     1
 44
1.0
1001
ACAD
1000
MTEXTBEGIN
1070
    73
1070
     1
1070
    44
1040
1.0
1070
    74
1070
     0
1000
MTEXTEND
  0
POINT
  5
1EE
330
1E6
100
AcDbEntity
  8
Defpoints
 62
     0
100
AcDbPoint
 10
7094.128348696692
 20
-1454.517365594849
 30
0.0
  0
POINT
  5
1EF
330
1E6
100
AcDbEntity
  8
Defpoints
 62
     0
100
AcDbPoint
 10
7129.128348696692
 20
-1454.517365594849
 30
0.0
  0
POINT
  5
1F0
330
1E6
100
AcDbEntity
  8
Defpoints
 62
     0
100
AcDbPoint
 10
7129.128348696692
 20
-1428.51736559485
 30
0.0
  0
ENDBLK
  5
1F1
330
1E6
100
AcDbEntity
  8
0
100
AcDbBlockEnd
  0
BLOCK
  5
1F3
330
1F2
100
AcDbEntity
  8
0
100
AcDbBlockBegin
  2
*D43
 70
     1
 10
0.0
 20
0.0
 30
0.0
  3
*D43
  1

  0
LINE
  5
1F4
330
1F2
100
AcDbEntity
  8
cotas
100
AcDbLine
 10
7201.836277244928
 20
-1421.041443660232
 30
0.0
 11
7177.430578668307
 21
-1447.49300317918
 31
0.0
  0
MTEXT
  5
1F5
330
1F2
100
AcDbEntity
  8
cotas
100
AcDbMText
 10
7185.597912243618
 20
-1423.740714822881
 30
0.0
 40
10.0
 41
0.0
 71
     5
 72
     1
  1
R5
  7
SANINDUSA
 11
0.6781131774694394
 21
0.7349574943779408
 31
0.0
 73
     1
 44
1.0
1001
ACAD
1000
MTEXTBEGIN
1070
    73
1070
     1
1070
    44
1040
1.0
1070
    74
1070
     0
1000
MTEXTEND
  0
LINE
  5
1F6
330
1F2
100
AcDbEntity
  8
cotas
100
AcDbLine
 10
7167.258881006265
 20
-1458.51736559485
 30
0.0
 11
7170.649446893612
 21
-1454.842578122959
 31
0.0
  0
SOLID
  5
1F7
330
1F2
100
AcDbEntity
  8
cotas
100
AcDbTrace
 10
7176.205649511011
 20
-1446.362814550064
 30
0.0
 11
7178.655507825604
 21
-1448.623191808296
 31
0.0
 12
7170.649446893612
 22
-1454.842578122959
 32
0.0
 13
7170.649446893612
 23
-1454.842578122959
 33
0.0
  0
POINT
  5
1F8
330
1F2
100
AcDbEntity
  8
Defpoints
 62
     0
100
AcDbPoint
 10
7170.649446893612
 20
-1454.842578122959
 30
0.0
  0
POINT
  5
1F9
330
1F2
100
AcDbEntity
  8
Defpoints
 62
     0
100
AcDbPoint
 10
7167.258881006265
 20
-1458.51736559485
 30
0.0
  0
ENDBLK
  5
1FA
330
1F2
100
AcDbEntity
  8
0
100
AcDbBlockEnd
  0
BLOCK
  5
1FC
330
1FB
100
AcDbEntity
  8
0
100
AcDbBlockBegin
  2
*D44
 70
     1
 10
0.0
 20
0.0
 30
0.0
  3
*D44
  1

  0
LINE
  5
1FD
330
1FB
100
AcDbEntity
  8
cotas
100
AcDbLine
 10
7106.446652818203
 20
-1680.383557404416
 30
0.0
 11
7077.038022712804
 21
-1653.614470581294
 31
0.0
  0
MTEXT
  5
1FE
330
1FB
100
AcDbEntity
  8
cotas
100
AcDbMText
 10
7103.637912408918
 20
-1664.163768871931
 30
0.0
 40
10.0
 41
0.0
 71
     5
 72
     1
  1
R5
  7
SANINDUSA
 11
0.7395147685182419
 21
-0.6731403324295842
 31
0.0
 73
     1
 44
1.0
1001
ACAD
1000
MTEXTBEGIN
1070
    73
1070
     1
1070
    44
1040
1.0
1070
    74
1070
     0
1000
MTEXTEND
  0
LINE
  5
1FF
330
1FB
100
AcDbEntity
  8
cotas
100
AcDbLine
 10
7065.945301185029
 20
-1643.517365594848
 30
0.0
 11
7069.642875027622
 21
-1646.883067256998
 31
0.0
  0
SOLID
  5
200
330
1FB
100
AcDbEntity
  8
cotas
100
AcDbTrace
 10
7078.159923266854
 20
-1652.381945967097
 30
0.0
 11
7075.916122158756
 21
-1654.84699519549
 31
0.0
 12
7069.642875027622
 22
-1646.883067256998
 32
0.0
 13
7069.642875027622
 23
-1646.883067256998
 33
0.0
  0
POINT
  5
201
330
1FB
100
AcDbEntity
  8
Defpoints
 62
     0
100
AcDbPoint
 10
7069.642875027622
 20
-1646.883067256998
 30
0.0
  0
POINT
  5
202
330
1FB
100
AcDbEntity
  8
Defpoints
 62
     0
100
AcDbPoint
 10
7065.945301185029
 20
-1643.517365594848
 30
0.0
  0
ENDBLK
  5
203
330
1FB
100
AcDbEntity
  8
0
100
AcDbBlockEnd
  0
BLOCK
  5
6E0
330
6D6
100
AcDbEntity
  8
0
100
AcDbBlockBegin
  2
*D46
 70
     1
 10
0.0
 20
0.0
 30
0.0
  3
*D46
  1

  0
LINE
  5
7CD
330
6D6
100
AcDbEntity
  8
cotas
100
AcDbLine
 10
1504.580047297655
 20
295.6517854079806
 30
0.0
 11
1504.580047297655
 21
230.0958429428519
 31
0.0
  0
LINE
  5
7CE
330
6D6
100
AcDbEntity
  8
cotas
100
AcDbLine
 10
739.5802312626551
 20
295.6362072495741
 30
0.0
 11
739.5802312626551
 21
230.0958429428519
 31
0.0
  0
LINE
  5
7CF
330
6D6
100
AcDbEntity
  8
cotas
100
AcDbLine
 10
1494.580047297655
 20
235.0958429428518
 30
0.0
 11
749.5802312626551
 21
235.0958429428518
 31
0.0
  0
SOLID
  5
7D0
330
6D6
100
AcDbEntity
  8
cotas
100
AcDbTrace
 10
1494.580047297655
 20
236.7625096095185
 30
0.0
 11
1494.580047297655
 21
233.4291762761852
 31
0.0
 12
1504.580047297655
 22
235.0958429428518
 32
0.0
 13
1504.580047297655
 23
235.0958429428518
 33
0.0
  0
SOLID
  5
7D1
330
6D6
100
AcDbEntity
  8
cotas
100
AcDbTrace
 10
749.5802312626551
 20
236.7625096095185
 30
0.0
 11
749.5802312626551
 21
233.4291762761852
 31
0.0
 12
739.5802312626551
 22
235.0958429428518
 32
0.0
 13
739.5802312626551
 23
235.0958429428518
 33
0.0
  0
MTEXT
  5
7D2
330
6D6
100
AcDbEntity
  8
cotas
100
AcDbMText
 10
1122.080139280155
 20
245.2939624861695
 30
0.0
 40
10.0
 41
0.0
 71
     5
 72
     1
  1
765
  7
SANINDUSA
 73
     1
 44
1.0
1001
ACAD
1000
MTEXTBEGIN
1070
    73
1070
     1
1070
    44
1040
1.0
1070
    74
1070
     0
1000
MTEXTEND
  0
POINT
  5
7D3
330
6D6
100
AcDbEntity
  8
Defpoints
 62
     0
100
AcDbPoint
 10
1504.580047297655
 20
300.6517854079806
 30
0.0
  0
POINT
  5
7D4
330
6D6
100
AcDbEntity
  8
Defpoints
 62
     0
100
AcDbPoint
 10
739.5802312626551
 20
300.6362072495741
 30
0.0
  0
POINT
  5
7D5
330
6D6
100
AcDbEntity
  8
Defpoints
 62
     0
100
AcDbPoint
 10
739.5802312626551
 20
235.0958429428518
 30
0.0
  0
ENDBLK
  5
6E1
330
6D6
100
AcDbEntity
  8
0
100
AcDbBlockEnd
  0
BLOCK
  5
6EB
330
6E2
100
AcDbEntity
  8
0
100
AcDbBlockBegin
  2
*D47
 70
     1
 10
0.0
 20
0.0
 30
0.0
  3
*D47
  1

  0
LINE
  5
7EE
330
6E2
100
AcDbEntity
  8
cotas
100
AcDbLine
 10
740.1361782940998
 20
295.0960517058487
 30
0.0
 11
589.5802312626561
 21
295.0960517058488
 31
0.0
  0
LINE
  5
7EF
330
6E2
100
AcDbEntity
  8
cotas
100
AcDbLine
 10
594.5802312626561
 20
550.0958429428518
 30
0.0
 11
594.5802312626561
 21
305.0960517058488
 31
0.0
  0
SOLID
  5
7F0
330
6E2
100
AcDbEntity
  8
cotas
100
AcDbTrace
 10
592.9135645959895
 20
550.0958429428518
 30
0.0
 11
596.2468979293228
 21
550.0958429428518
 31
0.0
 12
594.5802312626561
 22
560.0958429428518
 32
0.0
 13
594.5802312626561
 23
560.0958429428518
 33
0.0
  0
SOLID
  5
7F1
330
6E2
100
AcDbEntity
  8
cotas
100
AcDbTrace
 10
592.9135645959895
 20
305.0960517058488
 30
0.0
 11
596.2468979293228
 21
305.0960517058488
 31
0.0
 12
594.5802312626561
 22
295.0960517058488
 32
0.0
 13
594.5802312626561
 23
295.0960517058488
 33
0.0
  0
MTEXT
  5
7F2
330
6E2
100
AcDbEntity
  8
cotas
100
AcDbMText
 10
584.3720378442545
 20
410.0958429428534
 30
0.0
 40
10.0
 41
0.0
 71
     5
 72
     1
  1
265
  7
SANINDUSA
 11
0.0000000000000001
 21
1.0
 31
0.0
 73
     1
 44
1.0
1001
ACAD
1000
MTEXTBEGIN
1070
    73
1070
     1
1070
    44
1040
1.0
1070
    74
1070
     0
1000
MTEXTEND
  0
POINT
  5
7F3
330
6E2
100
AcDbEntity
  8
Defpoints
 62
     0
100
AcDbPoint
 10
594.580231262656
 20
560.0958429428518
 30
0.0
  0
POINT
  5
7F4
330
6E2
100
AcDbEntity
  8
Defpoints
 62
     0
100
AcDbPoint
 10
745.1361782940998
 20
295.0960517058487
 30
0.0
  0
POINT
  5
7F5
330
6E2
100
AcDbEntity
  8
Defpoints
 62
     0
100
AcDbPoint
 10
594.5802312626561
 20
295.0960517058488
 30
0.0
  0
ENDBLK
  5
6EC
330
6E2
100
AcDbEntity
  8
0
100
AcDbBlockEnd
  0
BLOCK
  5
6F7
330
6ED
100
AcDbEntity
  8
0
100
AcDbBlockBegin
  2
*D48
 70
     1
 10
0.0
 20
0.0
 30
0.0
  3
*D48
  1

  0
LINE
  5
7F6
330
6ED
100
AcDbEntity
  8
cotas
100
AcDbLine
 10
740.1361782940998
 20
525.0956341798549
 30
0.0
 11
589.580231262656
 21
525.0956341798549
 31
0.0
  0
LINE
  5
7F7
330
6ED
100
AcDbEntity
  8
cotas
100
AcDbLine
 10
644.5802312626569
 20
560.0958429428518
 30
0.0
 11
589.580231262656
 21
560.0958429428518
 31
0.0
  0
LINE
  5
7F8
330
6ED
100
AcDbEntity
  8
cotas
100
AcDbLine
 10
594.580231262656
 20
535.0956341798549
 30
0.0
 11
594.580231262656
 21
550.0958429428518
 31
0.0
  0
SOLID
  5
7F9
330
6ED
100
AcDbEntity
  8
cotas
100
AcDbTrace
 10
592.9135645959894
 20
535.0956341798549
 30
0.0
 11
596.2468979293227
 21
535.0956341798549
 31
0.0
 12
594.580231262656
 22
525.0956341798549
 32
0.0
 13
594.580231262656
 23
525.0956341798549
 33
0.0
  0
SOLID
  5
7FA
330
6ED
100
AcDbEntity
  8
cotas
100
AcDbTrace
 10
592.9135645959894
 20
550.0958429428518
 30
0.0
 11
596.2468979293227
 21
550.0958429428518
 31
0.0
 12
594.580231262656
 22
560.0958429428518
 32
0.0
 13
594.580231262656
 23
560.0958429428518
 33
0.0
  0
MTEXT
  5
7FB
330
6ED
100
AcDbEntity
  8
cotas
100
AcDbMText
 10
584.3720378442543
 20
542.5957385613535
 30
0.0
 40
10.0
 41
0.0
 71
     5
 72
     1
  1
35
  7
SANINDUSA
 11
0.0000000000000001
 21
1.0
 31
0.0
 73
     1
 44
1.0
1001
ACAD
1000
MTEXTBEGIN
1070
    73
1070
     1
1070
    44
1040
1.0
1070
    74
1070
     0
1000
MTEXTEND
  0
POINT
  5
7FC
330
6ED
100
AcDbEntity
  8
Defpoints
 62
     0
100
AcDbPoint
 10
745.1361782940998
 20
525.0956341798549
 30
0.0
  0
POINT
  5
7FD
330
6ED
100
AcDbEntity
  8
Defpoints
 62
     0
100
AcDbPoint
 10
649.580231262657
 20
560.0958429428518
 30
0.0
  0
POINT
  5
7FE
330
6ED
100
AcDbEntity
  8
Defpoints
 62
     0
100
AcDbPoint
 10
594.580231262656
 20
560.0958429428518
 30
0.0
  0
ENDBLK
  5
6F8
330
6ED
100
AcDbEntity
  8
0
100
AcDbBlockEnd
  0
BLOCK
  5
703
330
6F9
100
AcDbEntity
  8
0
100
AcDbBlockBegin
  2
*D49
 70
     1
 10
0.0
 20
0.0
 30
0.0
  3
*D49
  1

  0
LINE
  5
82F
330
6F9
100
AcDbEntity
  8
cotas
100
AcDbLine
 10
619.580231262656
 20
535.0958429428518
 30
0.0
 11
619.580231262656
 21
640.0958429428518
 31
0.0
  0
LINE
  5
830
330
6F9
100
AcDbEntity
  8
cotas
100
AcDbLine
 10
1624.580231262656
 20
535.0958429428529
 30
0.0
 11
1624.580231262656
 21
640.0958429428518
 31
0.0
  0
LINE
  5
831
330
6F9
100
AcDbEntity
  8
cotas
100
AcDbLine
 10
629.5802312626561
 20
635.0958429428518
 30
0.0
 11
1614.580231262656
 21
635.0958429428518
 31
0.0
  0
SOLID
  5
832
330
6F9
100
AcDbEntity
  8
cotas
100
AcDbTrace
 10
629.5802312626561
 20
636.7625096095184
 30
0.0
 11
629.5802312626561
 21
633.4291762761852
 31
0.0
 12
619.580231262656
 22
635.0958429428518
 32
0.0
 13
619.580231262656
 23
635.0958429428518
 33
0.0
  0
SOLID
  5
833
330
6F9
100
AcDbEntity
  8
cotas
100
AcDbTrace
 10
1614.580231262656
 20
636.7625096095184
 30
0.0
 11
1614.580231262656
 21
633.4291762761852
 31
0.0
 12
1624.580231262656
 22
635.0958429428518
 32
0.0
 13
1624.580231262656
 23
635.0958429428518
 33
0.0
  0
MTEXT
  5
834
330
6F9
100
AcDbEntity
  8
cotas
100
AcDbMText
 10
1122.080231262656
 20
645.3006784028921
 30
0.0
 40
10.0
 41
0.0
 71
     5
 72
     1
  1
1005
  7
SANINDUSA
 73
     1
 44
1.0
1001
ACAD
1000
MTEXTBEGIN
1070
    73
1070
     1
1070
    44
1040
1.0
1070
    74
1070
     0
1000
MTEXTEND
  0
POINT
  5
835
330
6F9
100
AcDbEntity
  8
Defpoints
 62
     0
100
AcDbPoint
 10
619.580231262656
 20
530.0958429428518
 30
0.0
  0
POINT
  5
836
330
6F9
100
AcDbEntity
  8
Defpoints
 62
     0
100
AcDbPoint
 10
1624.580231262656
 20
530.0958429428529
 30
0.0
  0
POINT
  5
837
330
6F9
100
AcDbEntity
  8
Defpoints
 62
     0
100
AcDbPoint
 10
1624.580231262656
 20
635.0958429428518
 30
0.0
  0
ENDBLK
  5
704
330
6F9
100
AcDbEntity
  8
0
100
AcDbBlockEnd
  0
BLOCK
  5
70C
330
705
100
AcDbEntity
  8
0
100
AcDbBlockBegin
  2
*D50
 70
     1
 10
0.0
 20
0.0
 30
0.0
  3
*D50
  1

  0
LINE
  5
8AA
330
705
100
AcDbEntity
  8
cotas
100
AcDbLine
 10
2858.253686603172
 20
632.4745730135421
 30
0.0
 11
2838.429102245805
 21
602.4361146800172
 31
0.0
  0
MTEXT
  5
8AB
330
705
100
AcDbEntity
  8
cotas
100
AcDbMText
 10
2842.66245105656
 20
627.1940487161518
 30
0.0
 40
10.0
 41
0.0
 71
     5
 72
     1
  1
R5
  7
SANINDUSA
 11
0.5508267607411789
 21
0.8346196017656067
 31
0.0
 73
     1
 44
1.0
1001
ACAD
1000
MTEXTBEGIN
1070
    73
1070
     1
1070
    44
1040
1.0
1070
    74
1070
     0
1000
MTEXTEND
  0
LINE
  5
8AC
330
705
100
AcDbEntity
  8
cotas
100
AcDbLine
 10
2830.166700834683
 20
589.9168206535271
 30
0.0
 11
2832.920834638393
 21
594.0899186623609
 31
0.0
  0
SOLID
  5
8AD
330
705
100
AcDbEntity
  8
cotas
100
AcDbTrace
 10
2837.038069576195
 20
603.3541592812525
 30
0.0
 11
2839.820134915414
 21
601.5180700787818
 31
0.0
 12
2832.920834638393
 22
594.0899186623609
 32
0.0
 13
2832.920834638393
 23
594.0899186623609
 33
0.0
  0
POINT
  5
8AE
330
705
100
AcDbEntity
  8
Defpoints
 62
     0
100
AcDbPoint
 10
2832.920834638393
 20
594.0899186623609
 30
0.0
  0
POINT
  5
8AF
330
705
100
AcDbEntity
  8
Defpoints
 62
     0
100
AcDbPoint
 10
2830.166700834683
 20
589.9168206535271
 30
0.0
  0
ENDBLK
  5
70D
330
705
100
AcDbEntity
  8
0
100
AcDbBlockEnd
  0
BLOCK
  5
715
330
70E
100
AcDbEntity
  8
0
100
AcDbBlockBegin
  2
*D51
 70
     1
 10
0.0
 20
0.0
 30
0.0
  3
*D51
  1

  0
LINE
  5
8B0
330
70E
100
AcDbEntity
  8
cotas
100
AcDbLine
 10
2872.954893572071
 20
372.1821561023905
 30
0.0
 11
2842.75378394025
 21
391.7580622373316
 31
0.0
  0
MTEXT
  5
8B1
330
70E
100
AcDbEntity
  8
cotas
100
AcDbMText
 10
2867.545825395629
 20
387.7292633634813
 30
0.0
 40
10.0
 41
0.0
 71
     5
 72
     1
  1
R5
  7
SANINDUSA
 11
0.8391388737037017
 21
-0.5439172277463577
 31
0.0
 73
     1
 44
1.0
1001
ACAD
1000
MTEXTBEGIN
1070
    73
1070
     1
1070
    44
1040
1.0
1070
    74
1070
     0
1000
MTEXTEND
  0
LINE
  5
8B2
330
70E
100
AcDbEntity
  8
cotas
100
AcDbLine
 10
2830.166700834689
 20
399.9168206535301
 30
0.0
 11
2834.362395203213
 21
397.1972345147951
 31
0.0
  0
SOLID
  5
8B3
330
70E
100
AcDbEntity
  8
cotas
100
AcDbTrace
 10
2843.66031265316
 20
393.1566270268379
 30
0.0
 11
2841.847255227339
 21
390.3594974478253
 31
0.0
 12
2834.362395203213
 22
397.1972345147951
 32
0.0
 13
2834.362395203213
 23
397.1972345147951
 33
0.0
  0
POINT
  5
8B4
330
70E
100
AcDbEntity
  8
Defpoints
 62
     0
100
AcDbPoint
 10
2834.362395203213
 20
397.1972345147951
 30
0.0
  0
POINT
  5
8B5
330
70E
100
AcDbEntity
  8
Defpoints
 62
     0
100
AcDbPoint
 10
2830.166700834689
 20
399.9168206535301
 30
0.0
  0
ENDBLK
  5
716
330
70E
100
AcDbEntity
  8
0
100
AcDbBlockEnd
  0
BLOCK
  5
71D
330
717
100
AcDbEntity
  8
0
100
AcDbBlockBegin
  2
*D52
 70
     1
 10
0.0
 20
0.0
 30
0.0
  3
*D52
  1

  0
LINE
  5
8B6
330
717
100
AcDbEntity
  8
cotas
100
AcDbLine
 10
2661.91958957781
 20
470.4175520053204
 30
0.0
 11
2685.824187124848
 21
443.5122859759433
 31
0.0
  0
MTEXT
  5
8B7
330
717
100
AcDbEntity
  8
cotas
100
AcDbMText
 10
2678.104394391154
 20
467.4137783988032
 30
0.0
 40
10.0
 41
0.0
 71
     5
 72
     1
  1
R5
  7
SANINDUSA
 11
0.6641900680637797
 21
-0.7475637454327435
 31
0.0
 73
     1
 44
1.0
1001
ACAD
1000
MTEXTBEGIN
1070
    73
1070
     1
1070
    44
1040
1.0
1070
    74
1070
     0
1000
MTEXTEND
  0
SOLID
  5
8B8
330
717
100
AcDbEntity
  8
cotas
100
AcDbTrace
 10
2687.070126700569
 20
444.6192694227161
 30
0.0
 11
2684.578247549127
 21
442.4053025291705
 31
0.0
 12
2692.466087805486
 22
436.0366485216156
 32
0.0
 13
2692.466087805486
 23
436.0366485216156
 33
0.0
  0
POINT
  5
8B9
330
717
100
AcDbEntity
  8
Defpoints
 62
     0
100
AcDbPoint
 10
2692.466087805486
 20
436.0366485216156
 30
0.0
  0
POINT
  5
8BA
330
717
100
AcDbEntity
  8
Defpoints
 62
     0
100
AcDbPoint
 10
2689.145137465164
 20
439.7744672487829
 30
0.0
  0
ENDBLK
  5
71E
330
717
100
AcDbEntity
  8
0
100
AcDbBlockEnd
  0
BLOCK
  5
72B
330
71F
100
AcDbEntity
  8
0
100
AcDbBlockBegin
  2
*D53
 70
     1
 10
0.0
 20
0.0
 30
0.0
  3
*D53
  1

  0
LINE
  5
8BB
330
71F
100
AcDbEntity
  8
cotas
100
AcDbLine
 10
2835.166700834696
 20
594.916820653531
 30
0.0
 11
2868.65041383135
 21
594.916820653531
 31
0.0
  0
LINE
  5
8BC
330
71F
100
AcDbEntity
  8
cotas
100
AcDbLine
 10
2825.166700834695
 20
582.9168206535315
 30
0.0
 11
2868.65041383135
 21
582.9168206535315
 31
0.0
  0
LINE
  5
8BD
330
71F
100
AcDbEntity
  8
cotas
100
AcDbLine
 10
2863.65041383135
 20
604.9168206535311
 30
0.0
 11
2863.65041383135
 21
614.9168206535311
 31
0.0
  0
LINE
  5
8BE
330
71F
100
AcDbEntity
  8
cotas
100
AcDbLine
 10
2863.65041383135
 20
572.9168206535315
 30
0.0
 11
2863.65041383135
 21
538.1888152807981
 31
0.0
  0
LINE
  5
8BF
330
71F
100
AcDbEntity
  8
cotas
100
AcDbLine
 10
2863.65041383135
 20
594.916820653531
 30
0.0
 11
2863.65041383135
 21
582.9168206535315
 31
0.0
  0
SOLID
  5
8C0
330
71F
100
AcDbEntity
  8
cotas
100
AcDbTrace
 10
2861.983747164683
 20
604.9168206535311
 30
0.0
 11
2865.317080498016
 21
604.9168206535311
 31
0.0
 12
2863.65041383135
 22
594.916820653531
 32
0.0
 13
2863.65041383135
 23
594.916820653531
 33
0.0
  0
SOLID
  5
8C1
330
71F
100
AcDbEntity
  8
cotas
100
AcDbTrace
 10
2861.983747164683
 20
572.9168206535315
 30
0.0
 11
2865.317080498016
 21
572.9168206535315
 31
0.0
 12
2863.65041383135
 22
582.9168206535315
 32
0.0
 13
2863.65041383135
 23
582.9168206535315
 33
0.0
  0
MTEXT
  5
8C2
330
71F
100
AcDbEntity
  8
cotas
100
AcDbMText
 10
2853.546317122149
 20
550.5528179671653
 30
0.0
 40
10.0
 41
0.0
 71
     5
 72
     1
  1
12
  7
SANINDUSA
 11
0.0000000000000001
 21
1.0
 31
0.0
 73
     1
 44
1.0
1001
ACAD
1000
MTEXTBEGIN
1070
    73
1070
     1
1070
    44
1040
1.0
1070
    74
1070
     0
1000
MTEXTEND
  0
POINT
  5
8C3
330
71F
100
AcDbEntity
  8
Defpoints
 62
     0
100
AcDbPoint
 10
2830.166700834695
 20
594.916820653531
 30
0.0
  0
POINT
  5
8C4
330
71F
100
AcDbEntity
  8
Defpoints
 62
     0
100
AcDbPoint
 10
2820.166700834695
 20
582.9168206535315
 30
0.0
  0
POINT
  5
8C5
330
71F
100
AcDbEntity
  8
Defpoints
 62
     0
100
AcDbPoint
 10
2863.65041383135
 20
582.9168206535315
 30
0.0
  0
ENDBLK
  5
72C
330
71F
100
AcDbEntity
  8
0
100
AcDbBlockEnd
  0
BLOCK
  5
737
330
72D
100
AcDbEntity
  8
0
100
AcDbBlockBegin
  2
*D54
 70
     1
 10
0.0
 20
0.0
 30
0.0
  3
*D54
  1

  0
LINE
  5
8D2
330
72D
100
AcDbEntity
  8
cotas
100
AcDbLine
 10
2757.666700834696
 20
598.9168206535319
 30
0.0
 11
2757.666700834696
 21
624.916820653531
 31
0.0
  0
LINE
  5
8D3
330
72D
100
AcDbEntity
  8
cotas
100
AcDbLine
 10
2792.666700834696
 20
598.9168206535319
 30
0.0
 11
2792.666700834696
 21
624.916820653531
 31
0.0
  0
LINE
  5
8D4
330
72D
100
AcDbEntity
  8
cotas
100
AcDbLine
 10
2767.666700834695
 20
619.916820653531
 30
0.0
 11
2782.666700834696
 21
619.916820653531
 31
0.0
  0
SOLID
  5
8D5
330
72D
100
AcDbEntity
  8
cotas
100
AcDbTrace
 10
2767.666700834695
 20
621.5834873201977
 30
0.0
 11
2767.666700834695
 21
618.2501539868645
 31
0.0
 12
2757.666700834696
 22
619.916820653531
 32
0.0
 13
2757.666700834696
 23
619.916820653531
 33
0.0
  0
SOLID
  5
8D6
330
72D
100
AcDbEntity
  8
cotas
100
AcDbTrace
 10
2782.666700834696
 20
621.5834873201977
 30
0.0
 11
2782.666700834696
 21
618.2501539868645
 31
0.0
 12
2792.666700834696
 22
619.916820653531
 32
0.0
 13
2792.666700834696
 23
619.916820653531
 33
0.0
  0
MTEXT
  5
8D7
330
72D
100
AcDbEntity
  8
cotas
100
AcDbMText
 10
2775.166700834696
 20
630.5178952002067
 30
0.0
 40
10.0
 41
0.0
 71
     5
 72
     1
  1
ø35
  7
SANINDUSA
 73
     1
 44
1.0
1001
ACAD
1000
MTEXTBEGIN
1070
    73
1070
     1
1070
    44
1040
1.0
1070
    74
1070
     0
1000
MTEXTEND
  0
POINT
  5
8D8
330
72D
100
AcDbEntity
  8
Defpoints
 62
     0
100
AcDbPoint
 10
2757.666700834696
 20
593.9168206535319
 30
0.0
  0
POINT
  5
8D9
330
72D
100
AcDbEntity
  8
Defpoints
 62
     0
100
AcDbPoint
 10
2792.666700834696
 20
593.9168206535319
 30
0.0
  0
POINT
  5
8DA
330
72D
100
AcDbEntity
  8
Defpoints
 62
     0
100
AcDbPoint
 10
2792.666700834696
 20
619.916820653531
 30
0.0
  0
ENDBLK
  5
738
330
72D
100
AcDbEntity
  8
0
100
AcDbBlockEnd
  0
BLOCK
  5
740
330
739
100
AcDbEntity
  8
0
100
AcDbBlockBegin
  2
*D55
 70
     1
 10
0.0
 20
0.0
 30
0.0
  3
*D55
  1

  0
LINE
  5
8DB
330
739
100
AcDbEntity
  8
cotas
100
AcDbLine
 10
2688.623155187035
 20
630.468351596944
 30
0.0
 11
2710.442429270512
 21
601.8459407539105
 31
0.0
  0
MTEXT
  5
8DC
330
739
100
AcDbEntity
  8
cotas
100
AcDbMText
 10
2704.537078020563
 20
626.2591209340069
 30
0.0
 40
10.0
 41
0.0
 71
     5
 72
     1
  1
R5
  7
SANINDUSA
 11
0.6062492836405522
 21
-0.795274673358405
 31
0.0
 73
     1
 44
1.0
1001
ACAD
1000
MTEXTBEGIN
1070
    73
1070
     1
1070
    44
1040
1.0
1070
    74
1070
     0
1000
MTEXTEND
  0
LINE
  5
8DD
330
739
100
AcDbEntity
  8
cotas
100
AcDbLine
 10
2719.536168525122
 20
589.9168206535319
 30
0.0
 11
2716.504922106917
 21
593.8931940203265
 31
0.0
  0
SOLID
  5
8DE
330
739
100
AcDbEntity
  8
cotas
100
AcDbTrace
 10
2711.767887059443
 20
602.8563562266447
 30
0.0
 11
2709.116971481582
 21
600.8355252811764
 31
0.0
 12
2716.504922106917
 22
593.8931940203265
 32
0.0
 13
2716.504922106917
 23
593.8931940203265
 33
0.0
  0
POINT
  5
8DF
330
739
100
AcDbEntity
  8
Defpoints
 62
     0
100
AcDbPoint
 10
2716.504922106917
 20
593.8931940203265
 30
0.0
  0
POINT
  5
8E0
330
739
100
AcDbEntity
  8
Defpoints
 62
     0
100
AcDbPoint
 10
2719.536168525122
 20
589.9168206535319
 30
0.0
  0
ENDBLK
  5
741
330
739
100
AcDbEntity
  8
0
100
AcDbBlockEnd
  0
BLOCK
  5
74C
330
742
100
AcDbEntity
  8
0
100
AcDbBlockBegin
  2
*D56
 70
     1
 10
0.0
 20
0.0
 30
0.0
  3
*D56
  1

  0
LINE
  5
8ED
330
742
100
AcDbEntity
  8
cotas
100
AcDbLine
 10
679.5802312626561
 20
439.56844718988
 30
0.0
 11
679.5802312626561
 21
590.0958429428518
 31
0.0
  0
LINE
  5
8EE
330
742
100
AcDbEntity
  8
cotas
100
AcDbLine
 10
740.1812596203476
 20
524.5398985865842
 30
0.0
 11
740.1812596203476
 21
590.0958429428518
 31
0.0
  0
LINE
  5
8EF
330
742
100
AcDbEntity
  8
cotas
100
AcDbLine
 10
689.580231262656
 20
585.0958429428518
 30
0.0
 11
730.1812596203476
 21
585.0958429428518
 31
0.0
  0
SOLID
  5
8F0
330
742
100
AcDbEntity
  8
cotas
100
AcDbTrace
 10
689.580231262656
 20
586.7625096095184
 30
0.0
 11
689.580231262656
 21
583.4291762761852
 31
0.0
 12
679.5802312626561
 22
585.0958429428518
 32
0.0
 13
679.5802312626561
 23
585.0958429428518
 33
0.0
  0
SOLID
  5
8F1
330
742
100
AcDbEntity
  8
cotas
100
AcDbTrace
 10
730.1812596203476
 20
586.7625096095184
 30
0.0
 11
730.1812596203476
 21
583.4291762761852
 31
0.0
 12
740.1812596203476
 22
585.0958429428518
 32
0.0
 13
740.1812596203476
 23
585.0958429428518
 33
0.0
  0
MTEXT
  5
8F2
330
742
100
AcDbEntity
  8
cotas
100
AcDbMText
 10
709.8807454415018
 20
596.4390262873783
 30
0.0
 40
10.0
 41
0.0
 71
     5
 72
     1
  1
60,6
  7
SANINDUSA
 73
     1
 44
1.0
1001
ACAD
1000
MTEXTBEGIN
1070
    73
1070
     1
1070
    44
1040
1.0
1070
    74
1070
     0
1000
MTEXTEND
  0
POINT
  5
8F3
330
742
100
AcDbEntity
  8
Defpoints
 62
     0
100
AcDbPoint
 10
679.5802312626561
 20
434.5684471898799
 30
0.0
  0
POINT
  5
8F4
330
742
100
AcDbEntity
  8
Defpoints
 62
     0
100
AcDbPoint
 10
740.1812596203476
 20
519.5398985865842
 30
0.0
  0
POINT
  5
8F5
330
742
100
AcDbEntity
  8
Defpoints
 62
     0
100
AcDbPoint
 10
740.1812596203476
 20
585.0958429428518
 30
0.0
  0
ENDBLK
  5
74D
330
742
100
AcDbEntity
  8
0
100
AcDbBlockEnd
  0
BLOCK
  5
758
330
74E
100
AcDbEntity
  8
0
100
AcDbBlockBegin
  2
*D57
 70
     1
 10
0.0
 20
0.0
 30
0.0
  3
*D57
  1

  0
LINE
  5
8F6
330
74E
100
AcDbEntity
  8
cotas
100
AcDbLine
 10
1971.802106219345
 20
429.8979113288798
 30
0.0
 11
1971.802106219345
 21
329.2220873996013
 31
0.0
  0
LINE
  5
8F7
330
74E
100
AcDbEntity
  8
cotas
100
AcDbLine
 10
2693.531619719575
 20
429.9003096780567
 30
0.0
 11
2693.531619719575
 21
329.2220873996013
 31
0.0
  0
LINE
  5
8F8
330
74E
100
AcDbEntity
  8
cotas
100
AcDbLine
 10
1981.802106219345
 20
334.2220873996013
 30
0.0
 11
2683.531619719575
 21
334.2220873996013
 31
0.0
  0
SOLID
  5
8F9
330
74E
100
AcDbEntity
  8
cotas
100
AcDbTrace
 10
1981.802106219345
 20
335.888754066268
 30
0.0
 11
1981.802106219345
 21
332.5554207329346
 31
0.0
 12
1971.802106219345
 22
334.2220873996013
 32
0.0
 13
1971.802106219345
 23
334.2220873996013
 33
0.0
  0
SOLID
  5
8FA
330
74E
100
AcDbEntity
  8
cotas
100
AcDbTrace
 10
2683.531619719575
 20
335.888754066268
 30
0.0
 11
2683.531619719575
 21
332.5554207329346
 31
0.0
 12
2693.531619719575
 22
334.2220873996013
 32
0.0
 13
2693.531619719575
 23
334.2220873996013
 33
0.0
  0
MTEXT
  5
8FB
330
74E
100
AcDbEntity
  8
cotas
100
AcDbMText
 10
2332.66686296946
 20
345.5686287024891
 30
0.0
 40
10.0
 41
0.0
 71
     5
 72
     1
  1
721,7
  7
SANINDUSA
 73
     1
 44
1.0
1001
ACAD
1000
MTEXTBEGIN
1070
    73
1070
     1
1070
    44
1040
1.0
1070
    74
1070
     0
1000
MTEXTEND
  0
POINT
  5
8FC
330
74E
100
AcDbEntity
  8
Defpoints
 62
     0
100
AcDbPoint
 10
1971.802106219345
 20
434.8979113288797
 30
0.0
  0
POINT
  5
8FD
330
74E
100
AcDbEntity
  8
Defpoints
 62
     0
100
AcDbPoint
 10
2693.531619719575
 20
434.9003096780567
 30
0.0
  0
POINT
  5
8FE
330
74E
100
AcDbEntity
  8
Defpoints
 62
     0
100
AcDbPoint
 10
2693.531619719575
 20
334.2220873996013
 30
0.0
  0
ENDBLK
  5
759
330
74E
100
AcDbEntity
  8
0
100
AcDbBlockEnd
  0
BLOCK
  5
764
330
75A
100
AcDbEntity
  8
0
100
AcDbBlockBegin
  2
*D58
 70
     1
 10
0.0
 20
0.0
 30
0.0
  3
*D58
  1

  0
ARC
  5
8FF
330
75A
100
AcDbEntity
  8
cotas
100
AcDbCircle
 10
2809.242314511042
 20
394.9168206535312
 30
0.0
 40
70.03235205237681
100
AcDbArc
 50
99.92829665467468
 51
171.8117033453257
  0
SOLID
  5
900
330
75A
100
AcDbEntity
  8
cotas
100
AcDbTrace
 10
2796.9982294792
 20
465.5584227288511
 30
0.0
 11
2797.337060242014
 21
462.2423550538358
 31
0.0
 12
2807.115847885653
 22
464.9168811797847
 32
0.0
 13
2807.115847885653
 23
464.9168811797847
 33
0.0
  0
SOLID
  5
901
330
75A
100
AcDbEntity
  8
cotas
100
AcDbTrace
 10
2741.586331668857
 20
404.7723088278753
 30
0.0
 11
2738.261504736086
 21
405.0102940758104
 31
0.0
 12
2739.209962458665
 22
394.9168206535312
 32
0.0
 13
2739.209962458665
 23
394.9168206535312
 33
0.0
  0
MTEXT
  5
902
330
75A
100
AcDbEntity
  8
cotas
100
AcDbMText
 10
2750.824421243323
 20
451.5870397547846
 30
0.0
 40
10.0
 41
0.0
 71
     5
 72
     1
  1
88,3°
  7
SANINDUSA
 11
0.6962887112311469
 21
0.7177618202524209
 31
0.0
 73
     1
 44
1.0
1001
ACAD
1000
MTEXTBEGIN
1070
    73
1070
     1
1070
    44
1040
1.0
1070
    74
1070
     0
1000
MTEXTEND
  0
POINT
  5
903
330
75A
100
AcDbEntity
  8
Defpoints
 62
     0
100
AcDbPoint
 10
2773.005493758126
 20
454.8453043295685
 30
0.0
  0
POINT
  5
904
330
75A
100
AcDbEntity
  8
Defpoints
 62
     0
100
AcDbPoint
 10
2808.943145834867
 20
404.7650003474108
 30
0.0
  0
POINT
  5
905
330
75A
100
AcDbEntity
  8
Defpoints
 62
     0
100
AcDbPoint
 10
2803.741426849851
 20
394.9168206535312
 30
0.0
  0
POINT
  5
906
330
75A
100
AcDbEntity
  8
Defpoints
 62
     0
100
AcDbPoint
 10
2704.044415260996
 20
394.9168206535312
 30
0.0
  0
POINT
  5
907
330
75A
100
AcDbEntity
  8
Defpoints
 62
     0
100
AcDbPoint
 10
2806.708342726281
 20
478.3313338122809
 30
0.0
  0
ENDBLK
  5
765
330
75A
100
AcDbEntity
  8
0
100
AcDbBlockEnd
  0
BLOCK
  5
770
330
766
100
AcDbEntity
  8
0
100
AcDbBlockBegin
  2
*D59
 70
     1
 10
0.0
 20
0.0
 30
0.0
  3
*D59
  1

  0
LINE
  5
908
330
766
100
AcDbEntity
  8
cotas
100
AcDbLine
 10
2309.166700834717
 20
399.0088595527619
 30
0.0
 11
2309.166700834717
 21
363.4246960028787
 31
0.0
  0
LINE
  5
909
330
766
100
AcDbEntity
  8
cotas
100
AcDbLine
 10
2356.166700834717
 20
399.0088595527619
 30
0.0
 11
2356.166700834717
 21
363.4246960028787
 31
0.0
  0
LINE
  5
90A
330
766
100
AcDbEntity
  8
cotas
100
AcDbLine
 10
2319.166700834717
 20
368.4246960028787
 30
0.0
 11
2346.166700834718
 21
368.4246960028787
 31
0.0
  0
SOLID
  5
90B
330
766
100
AcDbEntity
  8
cotas
100
AcDbTrace
 10
2319.166700834717
 20
370.0913626695454
 30
0.0
 11
2319.166700834717
 21
366.758029336212
 31
0.0
 12
2309.166700834717
 22
368.4246960028787
 32
0.0
 13
2309.166700834717
 23
368.4246960028787
 33
0.0
  0
SOLID
  5
90C
330
766
100
AcDbEntity
  8
cotas
100
AcDbTrace
 10
2346.166700834718
 20
370.0913626695454
 30
0.0
 11
2346.166700834718
 21
366.758029336212
 31
0.0
 12
2356.166700834717
 22
368.4246960028787
 32
0.0
 13
2356.166700834717
 23
368.4246960028787
 33
0.0
  0
MTEXT
  5
90D
330
766
100
AcDbEntity
  8
cotas
100
AcDbMText
 10
2332.666700834717
 20
378.9216738403535
 30
0.0
 40
10.0
 41
0.0
 71
     5
 72
     1
  1
ø47
  7
SANINDUSA
 73
     1
 44
1.0
1001
ACAD
1000
MTEXTBEGIN
1070
    73
1070
     1
1070
    44
1040
1.0
1070
    74
1070
     0
1000
MTEXTEND
  0
POINT
  5
90E
330
766
100
AcDbEntity
  8
Defpoints
 62
     0
100
AcDbPoint
 10
2309.166700834717
 20
404.0088595527619
 30
0.0
  0
POINT
  5
90F
330
766
100
AcDbEntity
  8
Defpoints
 62
     0
100
AcDbPoint
 10
2356.166700834717
 20
404.0088595527619
 30
0.0
  0
POINT
  5
910
330
766
100
AcDbEntity
  8
Defpoints
 62
     0
100
AcDbPoint
 10
2356.166700834717
 20
368.4246960028787
 30
0.0
  0
ENDBLK
  5
771
330
766
100
AcDbEntity
  8
0
100
AcDbBlockEnd
  0
BLOCK
  5
77C
330
772
100
AcDbEntity
  8
0
100
AcDbBlockBegin
  2
*D60
 70
     1
 10
0.0
 20
0.0
 30
0.0
  3
*D60
  1

  0
LINE
  5
911
330
772
100
AcDbEntity
  8
cotas
100
AcDbLine
 10
2302.246689552752
 20
426.416475727342
 30
0.0
 11
2302.29276616603
 21
426.416475727342
 31
0.0
  0
LINE
  5
912
330
772
100
AcDbEntity
  8
cotas
100
AcDbLine
 10
2327.666700834717
 20
592.3586678049788
 30
0.0
 11
2292.29276616603
 21
592.3586678049789
 31
0.0
  0
LINE
  5
913
330
772
100
AcDbEntity
  8
cotas
100
AcDbLine
 10
2297.29276616603
 20
436.4164757273421
 30
0.0
 11
2297.29276616603
 21
582.3586678049789
 31
0.0
  0
SOLID
  5
914
330
772
100
AcDbEntity
  8
cotas
100
AcDbTrace
 10
2295.626099499364
 20
436.4164757273421
 30
0.0
 11
2298.959432832697
 21
436.4164757273421
 31
0.0
 12
2297.29276616603
 22
426.416475727342
 32
0.0
 13
2297.29276616603
 23
426.416475727342
 33
0.0
  0
SOLID
  5
915
330
772
100
AcDbEntity
  8
cotas
100
AcDbTrace
 10
2295.626099499364
 20
582.3586678049789
 30
0.0
 11
2298.959432832697
 21
582.3586678049789
 31
0.0
 12
2297.29276616603
 22
592.3586678049789
 32
0.0
 13
2297.29276616603
 23
592.3586678049789
 33
0.0
  0
MTEXT
  5
916
330
772
100
AcDbEntity
  8
cotas
100
AcDbMText
 10
2287.094646622712
 20
509.3875717661609
 30
0.0
 40
10.0
 41
0.0
 71
     5
 72
     1
  1
166
  7
SANINDUSA
 11
0.0000000000000001
 21
1.0
 31
0.0
 73
     1
 44
1.0
1001
ACAD
1000
MTEXTBEGIN
1070
    73
1070
     1
1070
    44
1040
1.0
1070
    74
1070
     0
1000
MTEXTEND
  0
POINT
  5
917
330
772
100
AcDbEntity
  8
Defpoints
 62
     0
100
AcDbPoint
 10
2297.246689552752
 20
426.416475727342
 30
0.0
  0
POINT
  5
918
330
772
100
AcDbEntity
  8
Defpoints
 62
     0
100
AcDbPoint
 10
2332.666700834717
 20
592.3586678049788
 30
0.0
  0
POINT
  5
919
330
772
100
AcDbEntity
  8
Defpoints
 62
     0
100
AcDbPoint
 10
2297.29276616603
 20
592.3586678049789
 30
0.0
  0
ENDBLK
  5
77D
330
772
100
AcDbEntity
  8
0
100
AcDbBlockEnd
  0
BLOCK
  5
787
330
77E
100
AcDbEntity
  8
0
100
AcDbBlockBegin
  2
*D61
 70
     1
 10
0.0
 20
0.0
 30
0.0
  3
*D61
  1

  0
LINE
  5
926
330
77E
100
AcDbEntity
  8
cotas
100
AcDbLine
 10
1831.223325161721
 20
394.9168206535288
 30
0.0
 11
1797.188834082717
 21
394.9168206535288
 31
0.0
  0
LINE
  5
927
330
77E
100
AcDbEntity
  8
cotas
100
AcDbLine
 10
1802.188834082716
 20
404.9168206535288
 30
0.0
 11
1802.188834082716
 21
424.8979113288775
 31
0.0
  0
SOLID
  5
928
330
77E
100
AcDbEntity
  8
cotas
100
AcDbTrace
 10
1800.52216741605
 20
404.9168206535288
 30
0.0
 11
1803.855500749383
 21
404.9168206535288
 31
0.0
 12
1802.188834082716
 22
394.9168206535288
 32
0.0
 13
1802.188834082716
 23
394.9168206535288
 33
0.0
  0
SOLID
  5
929
330
77E
100
AcDbEntity
  8
cotas
100
AcDbTrace
 10
1800.52216741605
 20
424.8979113288775
 30
0.0
 11
1803.855500749383
 21
424.8979113288775
 31
0.0
 12
1802.188834082716
 22
434.8979113288775
 32
0.0
 13
1802.188834082716
 23
434.8979113288775
 33
0.0
  0
MTEXT
  5
92A
330
77E
100
AcDbEntity
  8
cotas
100
AcDbMText
 10
1791.983998622676
 20
414.9073659912034
 30
0.0
 40
10.0
 41
0.0
 71
     5
 72
     1
  1
40
  7
SANINDUSA
 11
0.0000000000000001
 21
1.0
 31
0.0
 73
     1
 44
1.0
1001
ACAD
1000
MTEXTBEGIN
1070
    73
1070
     1
1070
    44
1040
1.0
1070
    74
1070
     0
1000
MTEXTEND
  0
POINT
  5
92B
330
77E
100
AcDbEntity
  8
Defpoints
 62
     0
100
AcDbPoint
 10
1836.223325161721
 20
394.9168206535288
 30
0.0
  0
POINT
  5
92C
330
77E
100
AcDbEntity
  8
Defpoints
 62
     0
100
AcDbPoint
 10
1802.188834082716
 20
434.8979113288775
 30
0.0
  0
POINT
  5
92D
330
77E
100
AcDbEntity
  8
Defpoints
 62
     0
100
AcDbPoint
 10
1802.188834082716
 20
434.8979113288775
 30
0.0
  0
ENDBLK
  5
788
330
77E
100
AcDbEntity
  8
0
100
AcDbBlockEnd
  0
BLOCK
  5
790
330
789
100
AcDbEntity
  8
0
100
AcDbBlockBegin
  2
*D62
 70
     1
 10
0.0
 20
0.0
 30
0.0
  3
*D62
  1

  0
LINE
  5
92E
330
789
100
AcDbEntity
  8
cotas
100
AcDbLine
 10
1796.794955526136
 20
623.4973241856272
 30
0.0
 11
1823.878812372841
 21
599.7952605137765
 31
0.0
  0
MTEXT
  5
92F
330
789
100
AcDbEntity
  8
cotas
100
AcDbMText
 10
1813.228435241134
 20
622.5427000805398
 30
0.0
 40
10.0
 41
0.0
 71
     5
 72
     1
  1
R5
  7
SANINDUSA
 11
0.7525258974574394
 21
-0.6585626573499864
 31
0.0
 73
     1
 44
1.0
1001
ACAD
1000
MTEXTBEGIN
1070
    73
1070
     1
1070
    44
1040
1.0
1070
    74
1070
     0
1000
MTEXTEND
  0
LINE
  5
930
330
789
100
AcDbEntity
  8
cotas
100
AcDbLine
 10
1835.1667008347
 20
589.916820653529
 30
0.0
 11
1831.404071347416
 21
593.2096339402765
 31
0.0
  0
SOLID
  5
931
330
789
100
AcDbEntity
  8
cotas
100
AcDbTrace
 10
1824.976416801758
 20
601.0494703428722
 30
0.0
 11
1822.781207943924
 21
598.5410506846807
 31
0.0
 12
1831.404071347416
 22
593.2096339402765
 32
0.0
 13
1831.404071347416
 23
593.2096339402765
 33
0.0
  0
POINT
  5
932
330
789
100
AcDbEntity
  8
Defpoints
 62
     0
100
AcDbPoint
 10
1831.404071347416
 20
593.2096339402765
 30
0.0
  0
POINT
  5
933
330
789
100
AcDbEntity
  8
Defpoints
 62
     0
100
AcDbPoint
 10
1835.1667008347
 20
589.916820653529
 30
0.0
  0
ENDBLK
  5
791
330
789
100
AcDbEntity
  8
0
100
AcDbBlockEnd
  0
BLOCK
  5
799
330
792
100
AcDbEntity
  8
0
100
AcDbBlockBegin
  2
*D63
 70
     1
 10
0.0
 20
0.0
 30
0.0
  3
*D63
  1

  0
LINE
  5
934
330
792
100
AcDbEntity
  8
cotas
100
AcDbLine
 10
1797.332003748953
 20
365.7323687502898
 30
0.0
 11
1824.03679685827
 21
389.8607161654333
 31
0.0
  0
MTEXT
  5
935
330
792
100
AcDbEntity
  8
cotas
100
AcDbMText
 10
1800.200575493764
 20
381.9416827046225
 30
0.0
 40
10.0
 41
0.0
 71
     5
 72
     1
  1
R5
  7
SANINDUSA
 11
0.7419935984283043
 21
0.6704069658732794
 31
0.0
 73
     1
 44
1.0
1001
ACAD
1000
MTEXTBEGIN
1070
    73
1070
     1
1070
    44
1040
1.0
1070
    74
1070
     0
1000
MTEXTEND
  0
LINE
  5
936
330
792
100
AcDbEntity
  8
cotas
100
AcDbLine
 10
1835.166700834694
 20
399.9168206535322
 30
0.0
 11
1831.456732842553
 21
396.5647858241661
 31
0.0
  0
SOLID
  5
937
330
792
100
AcDbEntity
  8
cotas
100
AcDbTrace
 10
1822.919451915147
 20
391.0973721628137
 30
0.0
 11
1825.154141801392
 21
388.6240601680528
 31
0.0
 12
1831.456732842553
 22
396.5647858241661
 32
0.0
 13
1831.456732842553
 23
396.5647858241661
 33
0.0
  0
POINT
  5
938
330
792
100
AcDbEntity
  8
Defpoints
 62
     0
100
AcDbPoint
 10
1831.456732842553
 20
396.5647858241661
 30
0.0
  0
POINT
  5
939
330
792
100
AcDbEntity
  8
Defpoints
 62
     0
100
AcDbPoint
 10
1835.166700834694
 20
399.9168206535322
 30
0.0
  0
ENDBLK
  5
79A
330
792
100
AcDbEntity
  8
0
100
AcDbBlockEnd
  0
BLOCK
  5
7A1
330
79B
100
AcDbEntity
  8
0
100
AcDbBlockBegin
  2
*D64
 70
     1
 10
0.0
 20
0.0
 30
0.0
  3
*D64
  1

  0
LINE
  5
93A
330
79B
100
AcDbEntity
  8
cotas
100
AcDbLine
 10
2006.001219062991
 20
468.0172719108195
 30
0.0
 11
1979.809482408876
 21
443.3329437846766
 31
0.0
  0
MTEXT
  5
93B
330
79B
100
AcDbEntity
  8
cotas
100
AcDbMText
 10
1989.614097941236
 20
466.4575206273769
 30
0.0
 40
10.0
 41
0.0
 71
     5
 72
     1
  1
R5
  7
SANINDUSA
 11
0.7277383071090316
 21
0.6858549091215145
 31
0.0
 73
     1
 44
1.0
1001
ACAD
1000
MTEXTBEGIN
1070
    73
1070
     1
1070
    44
1040
1.0
1070
    74
1070
     0
1000
MTEXTEND
  0
SOLID
  5
93C
330
79B
100
AcDbEntity
  8
cotas
100
AcDbTrace
 10
1978.666390893673
 20
444.5458409631917
 30
0.0
 11
1980.952573924078
 21
442.1200466061614
 31
0.0
 12
1972.532099337785
 22
436.4743946934615
 32
0.0
 13
1972.532099337785
 23
436.4743946934615
 33
0.0
  0
POINT
  5
93D
330
79B
100
AcDbEntity
  8
Defpoints
 62
     0
100
AcDbPoint
 10
1972.532099337785
 20
436.4743946934615
 30
0.0
  0
POINT
  5
93E
330
79B
100
AcDbEntity
  8
Defpoints
 62
     0
100
AcDbPoint
 10
1976.170779963004
 20
439.903658956663
 30
0.0
  0
ENDBLK
  5
7A2
330
79B
100
AcDbEntity
  8
0
100
AcDbBlockEnd
  0
BLOCK
  5
7AD
330
7A3
100
AcDbEntity
  8
0
100
AcDbBlockBegin
  2
*D65
 70
     1
 10
0.0
 20
0.0
 30
0.0
  3
*D65
  1

  0
LINE
  5
93F
330
7A3
100
AcDbEntity
  8
cotas
100
AcDbLine
 10
1872.666700834695
 20
598.9168206535297
 30
0.0
 11
1872.666700834695
 21
624.9168206535288
 31
0.0
  0
LINE
  5
940
330
7A3
100
AcDbEntity
  8
cotas
100
AcDbLine
 10
1907.666700834695
 20
598.9168206535297
 30
0.0
 11
1907.666700834695
 21
624.9168206535288
 31
0.0
  0
LINE
  5
941
330
7A3
100
AcDbEntity
  8
cotas
100
AcDbLine
 10
1882.666700834695
 20
619.9168206535288
 30
0.0
 11
1897.666700834695
 21
619.9168206535288
 31
0.0
  0
SOLID
  5
942
330
7A3
100
AcDbEntity
  8
cotas
100
AcDbTrace
 10
1882.666700834695
 20
621.5834873201954
 30
0.0
 11
1882.666700834695
 21
618.2501539868622
 31
0.0
 12
1872.666700834695
 22
619.9168206535288
 32
0.0
 13
1872.666700834695
 23
619.9168206535288
 33
0.0
  0
SOLID
  5
943
330
7A3
100
AcDbEntity
  8
cotas
100
AcDbTrace
 10
1897.666700834695
 20
621.5834873201954
 30
0.0
 11
1897.666700834695
 21
618.2501539868622
 31
0.0
 12
1907.666700834695
 22
619.9168206535288
 32
0.0
 13
1907.666700834695
 23
619.9168206535288
 33
0.0
  0
MTEXT
  5
944
330
7A3
100
AcDbEntity
  8
cotas
100
AcDbMText
 10
1890.166700834695
 20
630.5178952002044
 30
0.0
 40
10.0
 41
0.0
 71
     5
 72
     1
  1
ø35
  7
SANINDUSA
 73
     1
 44
1.0
1001
ACAD
1000
MTEXTBEGIN
1070
    73
1070
     1
1070
    44
1040
1.0
1070
    74
1070
     0
1000
MTEXTEND
  0
POINT
  5
945
330
7A3
100
AcDbEntity
  8
Defpoints
 62
     0
100
AcDbPoint
 10
1872.666700834695
 20
593.9168206535297
 30
0.0
  0
POINT
  5
946
330
7A3
100
AcDbEntity
  8
Defpoints
 62
     0
100
AcDbPoint
 10
1907.666700834695
 20
593.9168206535297
 30
0.0
  0
POINT
  5
947
330
7A3
100
AcDbEntity
  8
Defpoints
 62
     0
100
AcDbPoint
 10
1907.666700834695
 20
619.9168206535288
 30
0.0
  0
ENDBLK
  5
7AE
330
7A3
100
AcDbEntity
  8
0
100
AcDbBlockEnd
  0
BLOCK
  5
7B6
330
7AF
100
AcDbEntity
  8
0
100
AcDbBlockBegin
  2
*D66
 70
     1
 10
0.0
 20
0.0
 30
0.0
  3
*D66
  1

  0
LINE
  5
948
330
7AF
100
AcDbEntity
  8
cotas
100
AcDbLine
 10
1980.37462938293
 20
627.392742588147
 30
0.0
 11
1955.96893080631
 21
600.941183069199
 31
0.0
  0
MTEXT
  5
949
330
7AF
100
AcDbEntity
  8
cotas
100
AcDbMText
 10
1964.13626438162
 20
624.6934714254974
 30
0.0
 40
10.0
 41
0.0
 71
     5
 72
     1
  1
R5
  7
SANINDUSA
 11
0.6781131774694394
 21
0.7349574943779408
 31
0.0
 73
     1
 44
1.0
1001
ACAD
1000
MTEXTBEGIN
1070
    73
1070
     1
1070
    44
1040
1.0
1070
    74
1070
     0
1000
MTEXTEND
  0
LINE
  5
94A
330
7AF
100
AcDbEntity
  8
cotas
100
AcDbLine
 10
1945.797233144267
 20
589.9168206535289
 30
0.0
 11
1949.187799031616
 21
593.5916081254197
 31
0.0
  0
SOLID
  5
94B
330
7AF
100
AcDbEntity
  8
cotas
100
AcDbTrace
 10
1954.744001649013
 20
602.0713716983148
 30
0.0
 11
1957.193859963606
 21
599.8109944400832
 31
0.0
 12
1949.187799031616
 22
593.5916081254197
 32
0.0
 13
1949.187799031616
 23
593.5916081254197
 33
0.0
  0
POINT
  5
94C
330
7AF
100
AcDbEntity
  8
Defpoints
 62
     0
100
AcDbPoint
 10
1949.187799031616
 20
593.5916081254197
 30
0.0
  0
POINT
  5
94D
330
7AF
100
AcDbEntity
  8
Defpoints
 62
     0
100
AcDbPoint
 10
1945.797233144267
 20
589.9168206535289
 30
0.0
  0
ENDBLK
  5
7B7
330
7AF
100
AcDbEntity
  8
0
100
AcDbBlockEnd
  0
BLOCK
  5
7BF
330
7B8
100
AcDbEntity
  8
0
100
AcDbBlockBegin
  2
*D67
 70
     1
 10
0.0
 20
0.0
 30
0.0
  3
*D67
  1

  0
LINE
  5
94E
330
7B8
100
AcDbEntity
  8
cotas
100
AcDbLine
 10
1884.985004956203
 20
368.0506288439625
 30
0.0
 11
1855.576374850808
 21
394.8197156670843
 31
0.0
  0
MTEXT
  5
94F
330
7B8
100
AcDbEntity
  8
cotas
100
AcDbMText
 10
1882.176264546919
 20
384.270417376447
 30
0.0
 40
10.0
 41
0.0
 71
     5
 72
     1
  1
R5
  7
SANINDUSA
 11
0.7395147685182192
 21
-0.6731403324296092
 31
0.0
 73
     1
 44
1.0
1001
ACAD
1000
MTEXTBEGIN
1070
    73
1070
     1
1070
    44
1040
1.0
1070
    74
1070
     0
1000
MTEXTEND
  0
LINE
  5
950
330
7B8
100
AcDbEntity
  8
cotas
100
AcDbLine
 10
1844.483653323032
 20
404.9168206535307
 30
0.0
 11
1848.181227165626
 21
401.5511189913804
 31
0.0
  0
SOLID
  5
951
330
7B8
100
AcDbEntity
  8
cotas
100
AcDbTrace
 10
1856.698275404857
 20
396.0522402812813
 30
0.0
 11
1854.454474296758
 21
393.5871910528871
 31
0.0
 12
1848.181227165626
 22
401.5511189913804
 32
0.0
 13
1848.181227165626
 23
401.5511189913804
 33
0.0
  0
POINT
  5
952
330
7B8
100
AcDbEntity
  8
Defpoints
 62
     0
100
AcDbPoint
 10
1848.181227165626
 20
401.5511189913804
 30
0.0
  0
POINT
  5
953
330
7B8
100
AcDbEntity
  8
Defpoints
 62
     0
100
AcDbPoint
 10
1844.483653323032
 20
404.9168206535307
 30
0.0
  0
ENDBLK
  5
7C0
330
7B8
100
AcDbEntity
  8
0
100
AcDbBlockEnd
  0
BLOCK
  5
7CB
330
7C1
100
AcDbEntity
  8
0
100
AcDbBlockBegin
  2
*D68
 70
     1
 10
0.0
 20
0.0
 30
0.0
  3
*D68
  1

  0
LINE
  5
7C2
330
7C1
100
AcDbEntity
  8
cotas
100
AcDbLine
 10
1504.580047297655
 20
295.6517854079806
 30
0.0
 11
1504.580047297655
 21
230.0958429428519
 31
0.0
  0
LINE
  5
7C3
330
7C1
100
AcDbEntity
  8
cotas
100
AcDbLine
 10
1624.580231262655
 20
295.6362072495741
 30
0.0
 11
1624.580231262655
 21
230.0958429428519
 31
0.0
  0
LINE
  5
7C4
330
7C1
100
AcDbEntity
  8
cotas
100
AcDbLine
 10
1514.580047297655
 20
235.0958429428518
 30
0.0
 11
1614.580231262655
 21
235.0958429428518
 31
0.0
  0
SOLID
  5
7C5
330
7C1
100
AcDbEntity
  8
cotas
100
AcDbTrace
 10
1514.580047297655
 20
236.7625096095185
 30
0.0
 11
1514.580047297655
 21
233.4291762761852
 31
0.0
 12
1504.580047297655
 22
235.0958429428518
 32
0.0
 13
1504.580047297655
 23
235.0958429428518
 33
0.0
  0
SOLID
  5
7C6
330
7C1
100
AcDbEntity
  8
cotas
100
AcDbTrace
 10
1614.580231262655
 20
236.7625096095185
 30
0.0
 11
1614.580231262655
 21
233.4291762761852
 31
0.0
 12
1624.580231262655
 22
235.0958429428518
 32
0.0
 13
1624.580231262655
 23
235.0958429428518
 33
0.0
  0
MTEXT
  5
7C7
330
7C1
100
AcDbEntity
  8
cotas
100
AcDbMText
 10
1564.597512039322
 20
245.3040363612534
 30
0.0
 40
10.0
 41
0.0
 71
     5
 72
     1
  1
120
  7
SANINDUSA
 73
     1
 44
1.0
1001
ACAD
1000
MTEXTBEGIN
1070
    73
1070
     1
1070
    44
1040
1.0
1070
    74
1070
     0
1000
MTEXTEND
  0
POINT
  5
7C8
330
7C1
100
AcDbEntity
  8
Defpoints
 62
     0
100
AcDbPoint
 10
1504.580047297655
 20
300.6517854079806
 30
0.0
  0
POINT
  5
7C9
330
7C1
100
AcDbEntity
  8
Defpoints
 62
     0
100
AcDbPoint
 10
1624.580231262655
 20
300.6362072495741
 30
0.0
  0
POINT
  5
7CA
330
7C1
100
AcDbEntity
  8
Defpoints
 62
     0
100
AcDbPoint
 10
1624.580231262655
 20
235.0958429428518
 30
0.0
  0
ENDBLK
  5
7CC
330
7C1
100
AcDbEntity
  8
0
100
AcDbBlockEnd
  0
BLOCK
  5
7E0
330
7D6
100
AcDbEntity
  8
0
100
AcDbBlockBegin
  2
*D69
 70
     1
 10
0.0
 20
0.0
 30
0.0
  3
*D69
  1

  0
LINE
  5
7D7
330
7D6
100
AcDbEntity
  8
cotas
100
AcDbLine
 10
619.580231262656
 20
285.0958429428521
 30
0.0
 11
619.580231262656
 21
230.0958429428519
 31
0.0
  0
LINE
  5
7D8
330
7D6
100
AcDbEntity
  8
cotas
100
AcDbLine
 10
739.5785205076186
 20
295.507693878296
 30
0.0
 11
739.5785205076186
 21
230.0958429428519
 31
0.0
  0
LINE
  5
7D9
330
7D6
100
AcDbEntity
  8
cotas
100
AcDbLine
 10
629.5802312626561
 20
235.0958429428518
 30
0.0
 11
729.5785205076185
 21
235.0958429428518
 31
0.0
  0
SOLID
  5
7DA
330
7D6
100
AcDbEntity
  8
cotas
100
AcDbTrace
 10
629.5802312626561
 20
236.7625096095185
 30
0.0
 11
629.5802312626561
 21
233.4291762761852
 31
0.0
 12
619.580231262656
 22
235.0958429428518
 32
0.0
 13
619.580231262656
 23
235.0958429428518
 33
0.0
  0
SOLID
  5
7DB
330
7D6
100
AcDbEntity
  8
cotas
100
AcDbTrace
 10
729.5785205076185
 20
236.7625096095185
 30
0.0
 11
729.5785205076185
 21
233.4291762761852
 31
0.0
 12
739.5785205076186
 22
235.0958429428518
 32
0.0
 13
739.5785205076186
 23
235.0958429428518
 33
0.0
  0
MTEXT
  5
7DC
330
7D6
100
AcDbEntity
  8
cotas
100
AcDbMText
 10
679.5793758851373
 20
245.3040363612534
 30
0.0
 40
10.0
 41
0.0
 71
     5
 72
     1
  1
120
  7
SANINDUSA
 73
     1
 44
1.0
1001
ACAD
1000
MTEXTBEGIN
1070
    73
1070
     1
1070
    44
1040
1.0
1070
    74
1070
     0
1000
MTEXTEND
  0
POINT
  5
7DD
330
7D6
100
AcDbEntity
  8
Defpoints
 62
     0
100
AcDbPoint
 10
619.580231262656
 20
290.0958429428521
 30
0.0
  0
POINT
  5
7DE
330
7D6
100
AcDbEntity
  8
Defpoints
 62
     0
100
AcDbPoint
 10
739.5785205076186
 20
300.507693878296
 30
0.0
  0
POINT
  5
7DF
330
7D6
100
AcDbEntity
  8
Defpoints
 62
     0
100
AcDbPoint
 10
739.5785205076186
 20
235.0958429428518
 30
0.0
  0
ENDBLK
  5
7E1
330
7D6
100
AcDbEntity
  8
0
100
AcDbBlockEnd
  0
BLOCK
  5
7EC
330
7E2
100
AcDbEntity
  8
0
100
AcDbBlockBegin
  2
*D70
 70
     1
 10
0.0
 20
0.0
 30
0.0
  3
*D70
  1

  0
LINE
  5
7E3
330
7E2
100
AcDbEntity
  8
cotas
100
AcDbLine
 10
740.1205955693772
 20
295.0958429428521
 30
0.0
 11
589.580231262656
 21
295.0958429428521
 31
0.0
  0
LINE
  5
7E4
330
7E2
100
AcDbEntity
  8
cotas
100
AcDbLine
 10
740.1205969517855
 20
260.0958429428518
 30
0.0
 11
589.580231262656
 21
260.0958429428519
 31
0.0
  0
LINE
  5
7E5
330
7E2
100
AcDbEntity
  8
cotas
100
AcDbLine
 10
594.580231262656
 20
285.0958429428521
 30
0.0
 11
594.580231262656
 21
270.0958429428519
 31
0.0
  0
SOLID
  5
7E6
330
7E2
100
AcDbEntity
  8
cotas
100
AcDbTrace
 10
592.9135645959894
 20
285.0958429428521
 30
0.0
 11
596.2468979293227
 21
285.0958429428521
 31
0.0
 12
594.580231262656
 22
295.0958429428521
 32
0.0
 13
594.580231262656
 23
295.0958429428521
 33
0.0
  0
SOLID
  5
7E7
330
7E2
100
AcDbEntity
  8
cotas
100
AcDbTrace
 10
592.9135645959894
 20
270.0958429428519
 30
0.0
 11
596.2468979293227
 21
270.0958429428519
 31
0.0
 12
594.580231262656
 22
260.0958429428519
 32
0.0
 13
594.580231262656
 23
260.0958429428519
 33
0.0
  0
MTEXT
  5
7E8
330
7E2
100
AcDbEntity
  8
cotas
100
AcDbMText
 10
584.3720378442543
 20
277.5958429428521
 30
0.0
 40
10.0
 41
0.0
 71
     5
 72
     1
  1
35
  7
SANINDUSA
 11
0.0000000000000001
 21
1.0
 31
0.0
 73
     1
 44
1.0
1001
ACAD
1000
MTEXTBEGIN
1070
    73
1070
     1
1070
    44
1040
1.0
1070
    74
1070
     0
1000
MTEXTEND
  0
POINT
  5
7E9
330
7E2
100
AcDbEntity
  8
Defpoints
 62
     0
100
AcDbPoint
 10
745.1205955693771
 20
295.0958429428521
 30
0.0
  0
POINT
  5
7EA
330
7E2
100
AcDbEntity
  8
Defpoints
 62
     0
100
AcDbPoint
 10
745.1205969517855
 20
260.0958429428518
 30
0.0
  0
POINT
  5
7EB
330
7E2
100
AcDbEntity
  8
Defpoints
 62
     0
100
AcDbPoint
 10
594.580231262656
 20
260.0958429428519
 30
0.0
  0
ENDBLK
  5
7ED
330
7E2
100
AcDbEntity
  8
0
100
AcDbBlockEnd
  0
BLOCK
  5
809
330
7FF
100
AcDbEntity
  8
0
100
AcDbBlockBegin
  2
*D71
 70
     1
 10
0.0
 20
0.0
 30
0.0
  3
*D71
  1

  0
LINE
  5
800
330
7FF
100
AcDbEntity
  8
cotas
100
AcDbLine
 10
1122.080231262656
 20
461.897475468232
 30
0.0
 11
1122.080231262656
 21
615.0958429428518
 31
0.0
  0
LINE
  5
801
330
7FF
100
AcDbEntity
  8
cotas
100
AcDbLine
 10
679.5802312626561
 20
444.56844718988
 30
0.0
 11
679.5802312626561
 21
615.0958429428518
 31
0.0
  0
LINE
  5
802
330
7FF
100
AcDbEntity
  8
cotas
100
AcDbLine
 10
1112.080231262656
 20
610.0958429428518
 30
0.0
 11
689.580231262656
 21
610.0958429428518
 31
0.0
  0
SOLID
  5
803
330
7FF
100
AcDbEntity
  8
cotas
100
AcDbTrace
 10
1112.080231262656
 20
611.7625096095184
 30
0.0
 11
1112.080231262656
 21
608.4291762761852
 31
0.0
 12
1122.080231262656
 22
610.0958429428518
 32
0.0
 13
1122.080231262656
 23
610.0958429428518
 33
0.0
  0
SOLID
  5
804
330
7FF
100
AcDbEntity
  8
cotas
100
AcDbTrace
 10
689.580231262656
 20
611.7625096095184
 30
0.0
 11
689.580231262656
 21
608.4291762761852
 31
0.0
 12
679.5802312626561
 22
610.0958429428518
 32
0.0
 13
679.5802312626561
 23
610.0958429428518
 33
0.0
  0
MTEXT
  5
805
330
7FF
100
AcDbEntity
  8
cotas
100
AcDbMText
 10
900.8302312626561
 20
621.4423842457397
 30
0.0
 40
10.0
 41
0.0
 71
     5
 72
     1
  1
442,5
  7
SANINDUSA
 73
     1
 44
1.0
1001
ACAD
1000
MTEXTBEGIN
1070
    73
1070
     1
1070
    44
1040
1.0
1070
    74
1070
     0
1000
MTEXTEND
  0
POINT
  5
806
330
7FF
100
AcDbEntity
  8
Defpoints
 62
     0
100
AcDbPoint
 10
1122.080231262656
 20
456.897475468232
 30
0.0
  0
POINT
  5
807
330
7FF
100
AcDbEntity
  8
Defpoints
 62
     0
100
AcDbPoint
 10
679.5802312626561
 20
439.56844718988
 30
0.0
  0
POINT
  5
808
330
7FF
100
AcDbEntity
  8
Defpoints
 62
     0
100
AcDbPoint
 10
679.5802312626561
 20
610.0958429428518
 30
0.0
  0
ENDBLK
  5
80A
330
7FF
100
AcDbEntity
  8
0
100
AcDbBlockEnd
  0
BLOCK
  5
815
330
80B
100
AcDbEntity
  8
0
100
AcDbBlockBegin
  2
*D72
 70
     1
 10
0.0
 20
0.0
 30
0.0
  3
*D72
  1

  0
LINE
  5
80C
330
80B
100
AcDbEntity
  8
cotas
100
AcDbLine
 10
1564.597513104278
 20
415.1919574578299
 30
0.0
 11
1564.597513104278
 21
615.0958429428518
 31
0.0
  0
LINE
  5
80D
330
80B
100
AcDbEntity
  8
cotas
100
AcDbLine
 10
1122.080231262656
 20
606.769403391073
 30
0.0
 11
1122.080231262656
 21
615.0958429428518
 31
0.0
  0
LINE
  5
80E
330
80B
100
AcDbEntity
  8
cotas
100
AcDbLine
 10
1554.597513104278
 20
610.0958429428518
 30
0.0
 11
1132.080231262656
 21
610.0958429428518
 31
0.0
  0
SOLID
  5
80F
330
80B
100
AcDbEntity
  8
cotas
100
AcDbTrace
 10
1554.597513104278
 20
611.7625096095184
 30
0.0
 11
1554.597513104278
 21
608.4291762761852
 31
0.0
 12
1564.597513104278
 22
610.0958429428518
 32
0.0
 13
1564.597513104278
 23
610.0958429428518
 33
0.0
  0
SOLID
  5
810
330
80B
100
AcDbEntity
  8
cotas
100
AcDbTrace
 10
1132.080231262656
 20
611.7625096095184
 30
0.0
 11
1132.080231262656
 21
608.4291762761852
 31
0.0
 12
1122.080231262656
 22
610.0958429428518
 32
0.0
 13
1122.080231262656
 23
610.0958429428518
 33
0.0
  0
MTEXT
  5
811
330
80B
100
AcDbEntity
  8
cotas
100
AcDbMText
 10
1343.338872183467
 20
621.4423842457397
 30
0.0
 40
10.0
 41
0.0
 71
     5
 72
     1
  1
442,5
  7
SANINDUSA
 73
     1
 44
1.0
1001
ACAD
1000
MTEXTBEGIN
1070
    73
1070
     1
1070
    44
1040
1.0
1070
    74
1070
     0
1000
MTEXTEND
  0
POINT
  5
812
330
80B
100
AcDbEntity
  8
Defpoints
 62
     0
100
AcDbPoint
 10
1564.597513104278
 20
410.19195745783
 30
0.0
  0
POINT
  5
813
330
80B
100
AcDbEntity
  8
Defpoints
 62
     0
100
AcDbPoint
 10
1122.080231262656
 20
601.769403391073
 30
0.0
  0
POINT
  5
814
330
80B
100
AcDbEntity
  8
Defpoints
 62
     0
100
AcDbPoint
 10
1122.080231262656
 20
610.0958429428518
 30
0.0
  0
ENDBLK
  5
816
330
80B
100
AcDbEntity
  8
0
100
AcDbBlockEnd
  0
BLOCK
  5
821
330
817
100
AcDbEntity
  8
0
100
AcDbBlockBegin
  2
*D73
 70
     1
 10
0.0
 20
0.0
 30
0.0
  3
*D73
  1

  0
LINE
  5
974
330
817
100
AcDbEntity
  8
cotas
100
AcDbLine
 10
1503.994782954508
 20
415.0958429428527
 30
0.0
 11
1503.994782954508
 21
590.0958429428526
 31
0.0
  0
LINE
  5
975
330
817
100
AcDbEntity
  8
cotas
100
AcDbLine
 10
1564.597513104278
 20
415.1919574578299
 30
0.0
 11
1564.597513104278
 21
590.0958429428526
 31
0.0
  0
LINE
  5
976
330
817
100
AcDbEntity
  8
cotas
100
AcDbLine
 10
1513.994782954508
 20
585.0958429428526
 30
0.0
 11
1554.597513104278
 21
585.0958429428526
 31
0.0
  0
SOLID
  5
977
330
817
100
AcDbEntity
  8
cotas
100
AcDbTrace
 10
1513.994782954508
 20
586.7625096095192
 30
0.0
 11
1513.994782954508
 21
583.429176276186
 31
0.0
 12
1503.994782954508
 22
585.0958429428526
 32
0.0
 13
1503.994782954508
 23
585.0958429428526
 33
0.0
  0
SOLID
  5
978
330
817
100
AcDbEntity
  8
cotas
100
AcDbTrace
 10
1554.597513104278
 20
586.7625096095192
 30
0.0
 11
1554.597513104278
 21
583.429176276186
 31
0.0
 12
1564.597513104278
 22
585.0958429428526
 32
0.0
 13
1564.597513104278
 23
585.0958429428526
 33
0.0
  0
MTEXT
  5
979
330
817
100
AcDbEntity
  8
cotas
100
AcDbMText
 10
1534.296148029393
 20
596.4390262873791
 30
0.0
 40
10.0
 41
0.0
 71
     5
 72
     1
  1
60,6
  7
SANINDUSA
 73
     1
 44
1.0
1001
ACAD
1000
MTEXTBEGIN
1070
    73
1070
     1
1070
    44
1040
1.0
1070
    74
1070
     0
1000
MTEXTEND
  0
POINT
  5
97A
330
817
100
AcDbEntity
  8
Defpoints
 62
     0
100
AcDbPoint
 10
1503.994782954508
 20
410.0958429428527
 30
0.0
  0
POINT
  5
97B
330
817
100
AcDbEntity
  8
Defpoints
 62
     0
100
AcDbPoint
 10
1564.597513104278
 20
410.19195745783
 30
0.0
  0
POINT
  5
97C
330
817
100
AcDbEntity
  8
Defpoints
 62
     0
100
AcDbPoint
 10
1564.597513104278
 20
585.0958429428526
 30
0.0
  0
ENDBLK
  5
822
330
817
100
AcDbEntity
  8
0
100
AcDbBlockEnd
  0
BLOCK
  5
82D
330
823
100
AcDbEntity
  8
0
100
AcDbBlockBegin
  2
*D74
 70
     1
 10
0.0
 20
0.0
 30
0.0
  3
*D74
  1

  0
LINE
  5
824
330
823
100
AcDbEntity
  8
cotas
100
AcDbLine
 10
1564.597514320114
 20
590.0958429428518
 30
0.0
 11
1564.597514320114
 21
590.0958432751671
 31
0.0
  0
LINE
  5
825
330
823
100
AcDbEntity
  8
cotas
100
AcDbLine
 10
1624.580231262656
 20
535.0958429428529
 30
0.0
 11
1624.580231262656
 21
590.0958432751671
 31
0.0
  0
LINE
  5
826
330
823
100
AcDbEntity
  8
cotas
100
AcDbLine
 10
1574.597514320114
 20
585.0958432751671
 30
0.0
 11
1614.580231262656
 21
585.0958432751671
 31
0.0
  0
SOLID
  5
827
330
823
100
AcDbEntity
  8
cotas
100
AcDbTrace
 10
1574.597514320114
 20
586.7625099418337
 30
0.0
 11
1574.597514320114
 21
583.4291766085004
 31
0.0
 12
1564.597514320114
 22
585.0958432751671
 32
0.0
 13
1564.597514320114
 23
585.0958432751671
 33
0.0
  0
SOLID
  5
828
330
823
100
AcDbEntity
  8
cotas
100
AcDbTrace
 10
1614.580231262656
 20
586.7625099418337
 30
0.0
 11
1614.580231262656
 21
583.4291766085004
 31
0.0
 12
1624.580231262656
 22
585.0958432751671
 32
0.0
 13
1624.580231262656
 23
585.0958432751671
 33
0.0
  0
MTEXT
  5
829
330
823
100
AcDbEntity
  8
cotas
100
AcDbMText
 10
1594.588872791385
 20
595.3006787352073
 30
0.0
 40
10.0
 41
0.0
 71
     5
 72
     1
  1
60
  7
SANINDUSA
 73
     1
 44
1.0
1001
ACAD
1000
MTEXTBEGIN
1070
    73
1070
     1
1070
    44
1040
1.0
1070
    74
1070
     0
1000
MTEXTEND
  0
POINT
  5
82A
330
823
100
AcDbEntity
  8
Defpoints
 62
     0
100
AcDbPoint
 10
1564.597514320114
 20
585.0958429428518
 30
0.0
  0
POINT
  5
82B
330
823
100
AcDbEntity
  8
Defpoints
 62
     0
100
AcDbPoint
 10
1624.580231262656
 20
530.0958429428529
 30
0.0
  0
POINT
  5
82C
330
823
100
AcDbEntity
  8
Defpoints
 62
     0
100
AcDbPoint
 10
1624.580231262656
 20
585.0958432751671
 30
0.0
  0
ENDBLK
  5
82E
330
823
100
AcDbEntity
  8
0
100
AcDbBlockEnd
  0
BLOCK
  5
83E
330
838
100
AcDbEntity
  8
0
100
AcDbBlockBegin
  2
*D75
 70
     1
 10
0.0
 20
0.0
 30
0.0
  3
*D75
  1

  0
LINE
  5
97D
330
838
100
AcDbEntity
  8
cotas
100
AcDbLine
 10
1577.042653405559
 20
307.6334207999549
 30
0.0
 11
1608.722366886386
 21
275.9537073191176
 31
0.0
  0
MTEXT
  5
97E
330
838
100
AcDbEntity
  8
cotas
100
AcDbMText
 10
1596.565259029855
 20
302.547380755286
 30
0.0
 40
10.0
 41
0.0
 71
     5
 72
     1
  1
R30
  7
SANINDUSA
 11
0.7071067811864396
 21
-0.7071067811866555
 31
0.0
 73
     1
 44
1.0
1001
ACAD
1000
MTEXTBEGIN
1070
    73
1070
     1
1070
    44
1040
1.0
1070
    74
1070
     0
1000
MTEXTEND
  0
SOLID
  5
97F
330
838
100
AcDbEntity
  8
cotas
100
AcDbTrace
 10
1609.900878188364
 20
277.132218621095
 30
0.0
 11
1607.543855584408
 21
274.7751960171401
 31
0.0
 12
1615.79343469825
 22
268.882639507251
 32
0.0
 13
1615.79343469825
 23
268.882639507251
 33
0.0
  0
POINT
  5
980
330
838
100
AcDbEntity
  8
Defpoints
 62
     0
100
AcDbPoint
 10
1615.79343469825
 20
268.882639507251
 30
0.0
  0
POINT
  5
981
330
838
100
AcDbEntity
  8
Defpoints
 62
     0
100
AcDbPoint
 10
1594.580231262656
 20
290.0958429428521
 30
0.0
  0
ENDBLK
  5
83F
330
838
100
AcDbEntity
  8
0
100
AcDbBlockEnd
  0
BLOCK
  5
846
330
840
100
AcDbEntity
  8
0
100
AcDbBlockBegin
  2
*D76
 70
     1
 10
0.0
 20
0.0
 30
0.0
  3
*D76
  1

  0
LINE
  5
954
330
840
100
AcDbEntity
  8
cotas
100
AcDbLine
 10
1574.349715708312
 20
510.1748352531949
 30
0.0
 11
1608.830958095901
 21
544.12854705589
 31
0.0
  0
MTEXT
  5
955
330
840
100
AcDbEntity
  8
cotas
100
AcDbMText
 10
1579.586090111645
 20
529.6576563221757
 30
0.0
 40
10.0
 41
0.0
 71
     5
 72
     1
  1
R30
  7
SANINDUSA
 11
0.7125363416624136
 21
0.7016352056520142
 31
0.0
 73
     1
 44
1.0
1001
ACAD
1000
MTEXTBEGIN
1070
    73
1070
     1
1070
    44
1040
1.0
1070
    74
1070
     0
1000
MTEXTEND
  0
SOLID
  5
956
330
840
100
AcDbEntity
  8
cotas
100
AcDbTrace
 10
1607.661566086481
 20
545.3161076253273
 30
0.0
 11
1610.00035010532
 21
542.9409864864527
 31
0.0
 12
1615.956321512525
 22
551.1448991124102
 32
0.0
 13
1615.956321512525
 23
551.1448991124102
 33
0.0
  0
POINT
  5
957
330
840
100
AcDbEntity
  8
Defpoints
 62
     0
100
AcDbPoint
 10
1615.956321512525
 20
551.1448991124102
 30
0.0
  0
POINT
  5
958
330
840
100
AcDbEntity
  8
Defpoints
 62
     0
100
AcDbPoint
 10
1594.580231262656
 20
530.0958429428531
 30
0.0
  0
ENDBLK
  5
847
330
840
100
AcDbEntity
  8
0
100
AcDbBlockEnd
  0
BLOCK
  5
84E
330
848
100
AcDbEntity
  8
0
100
AcDbBlockBegin
  2
*D77
 70
     1
 10
0.0
 20
0.0
 30
0.0
  3
*D77
  1

  0
LINE
  5
959
330
848
100
AcDbEntity
  8
cotas
100
AcDbLine
 10
671.4664488057999
 20
518.4285058070124
 30
0.0
 11
631.9313940453432
 21
539.5042724014376
 31
0.0
  0
MTEXT
  5
95A
330
848
100
AcDbEntity
  8
cotas
100
AcDbMText
 10
660.9132841137276
 20
535.6224189357856
 30
0.0
 40
10.0
 41
0.0
 71
     5
 72
     1
  1
R30
  7
SANINDUSA
 11
0.8824418608652049
 21
-0.4704214729290685
 31
0.0
 73
     1
 44
1.0
1001
ACAD
1000
MTEXTBEGIN
1070
    73
1070
     1
1070
    44
1040
1.0
1070
    74
1070
     0
1000
MTEXTEND
  0
SOLID
  5
95B
330
848
100
AcDbEntity
  8
cotas
100
AcDbTrace
 10
632.7154298335584
 20
540.9750088362129
 30
0.0
 11
631.1473582571282
 21
538.0335359666624
 31
0.0
 12
623.1069754366913
 22
544.2084871307283
 32
0.0
 13
623.1069754366913
 23
544.2084871307283
 33
0.0
  0
POINT
  5
95C
330
848
100
AcDbEntity
  8
Defpoints
 62
     0
100
AcDbPoint
 10
623.1069754366913
 20
544.2084871307283
 30
0.0
  0
POINT
  5
95D
330
848
100
AcDbEntity
  8
Defpoints
 62
     0
100
AcDbPoint
 10
649.580231262656
 20
530.0958429428517
 30
0.0
  0
ENDBLK
  5
84F
330
848
100
AcDbEntity
  8
0
100
AcDbBlockEnd
  0
BLOCK
  5
856
330
850
100
AcDbEntity
  8
0
100
AcDbBlockBegin
  2
*D78
 70
     1
 10
0.0
 20
0.0
 30
0.0
  3
*D78
  1

  0
LINE
  5
982
330
850
100
AcDbEntity
  8
cotas
100
AcDbLine
 10
668.4295933577268
 20
306.2152356980582
 30
0.0
 11
634.3802853327591
 21
277.0973182677928
 31
0.0
  0
MTEXT
  5
983
330
850
100
AcDbEntity
  8
cotas
100
AcDbMText
 10
648.5703531258736
 20
302.6641075517734
 30
0.0
 40
10.0
 41
0.0
 71
     5
 72
     1
  1
R30
  7
SANINDUSA
 11
0.7599972964949268
 21
0.6499262337530333
 31
0.0
 73
     1
 44
1.0
1001
ACAD
1000
MTEXTBEGIN
1070
    73
1070
     1
1070
    44
1040
1.0
1070
    74
1070
     0
1000
MTEXTEND
  0
SOLID
  5
984
330
850
100
AcDbEntity
  8
cotas
100
AcDbTrace
 10
633.2970749431709
 20
278.3639804286178
 30
0.0
 11
635.4634957223476
 21
275.830656106968
 31
0.0
 12
626.7803123678098
 22
270.5980559302625
 32
0.0
 13
626.7803123678098
 23
270.5980559302625
 33
0.0
  0
POINT
  5
985
330
850
100
AcDbEntity
  8
Defpoints
 62
     0
100
AcDbPoint
 10
626.7803123678098
 20
270.5980559302625
 30
0.0
  0
POINT
  5
986
330
850
100
AcDbEntity
  8
Defpoints
 62
     0
100
AcDbPoint
 10
649.5802312626559
 20
290.0958429428521
 30
0.0
  0
ENDBLK
  5
857
330
850
100
AcDbEntity
  8
0
100
AcDbBlockEnd
  0
BLOCK
  5
862
330
858
100
AcDbEntity
  8
0
100
AcDbBlockBegin
  2
*D79
 70
     1
 10
0.0
 20
0.0
 30
0.0
  3
*D79
  1

  0
LINE
  5
859
330
858
100
AcDbEntity
  8
cotas
100
AcDbLine
 10
1624.580231262656
 20
986.907138054884
 30
0.0
 11
1657.763943465329
 21
986.907138054884
 31
0.0
  0
LINE
  5
85A
330
858
100
AcDbEntity
  8
cotas
100
AcDbLine
 10
1624.580231262656
 20
786.907138054884
 30
0.0
 11
1657.763943465329
 21
786.907138054884
 31
0.0
  0
LINE
  5
85B
330
858
100
AcDbEntity
  8
cotas
100
AcDbLine
 10
1652.763943465329
 20
976.907138054884
 30
0.0
 11
1652.763943465329
 21
796.907138054884
 31
0.0
  0
SOLID
  5
85C
330
858
100
AcDbEntity
  8
cotas
100
AcDbTrace
 10
1651.097276798662
 20
976.907138054884
 30
0.0
 11
1654.430610131995
 21
976.907138054884
 31
0.0
 12
1652.763943465329
 22
986.907138054884
 32
0.0
 13
1652.763943465329
 23
986.907138054884
 33
0.0
  0
SOLID
  5
85D
330
858
100
AcDbEntity
  8
cotas
100
AcDbTrace
 10
1651.097276798662
 20
796.907138054884
 30
0.0
 11
1654.430610131995
 21
796.907138054884
 31
0.0
 12
1652.763943465329
 22
786.907138054884
 32
0.0
 13
1652.763943465329
 23
786.907138054884
 33
0.0
  0
MTEXT
  5
85E
330
858
100
AcDbEntity
  8
cotas
100
AcDbMText
 10
1642.555750046927
 20
886.9071380548843
 30
0.0
 40
10.0
 41
0.0
 71
     5
 72
     1
  1
200
  7
SANINDUSA
 11
0.0000000000000001
 21
1.0
 31
0.0
 73
     1
 44
1.0
1001
ACAD
1000
MTEXTBEGIN
1070
    73
1070
     1
1070
    44
1040
1.0
1070
    74
1070
     0
1000
MTEXTEND
  0
POINT
  5
85F
330
858
100
AcDbEntity
  8
Defpoints
 62
     0
100
AcDbPoint
 10
1619.580231262656
 20
986.907138054884
 30
0.0
  0
POINT
  5
860
330
858
100
AcDbEntity
  8
Defpoints
 62
     0
100
AcDbPoint
 10
1619.580231262656
 20
786.907138054884
 30
0.0
  0
POINT
  5
861
330
858
100
AcDbEntity
  8
Defpoints
 62
     0
100
AcDbPoint
 10
1652.763943465329
 20
786.907138054884
 30
0.0
  0
ENDBLK
  5
863
330
858
100
AcDbEntity
  8
0
100
AcDbBlockEnd
  0
BLOCK
  5
86E
330
864
100
AcDbEntity
  8
0
100
AcDbBlockBegin
  2
*D80
 70
     1
 10
0.0
 20
0.0
 30
0.0
  3
*D80
  1

  0
LINE
  5
865
330
864
100
AcDbEntity
  8
cotas
100
AcDbLine
 10
619.580231262656
 20
986.907138054884
 30
0.0
 11
619.580231262656
 21
1013.736076194112
 31
0.0
  0
LINE
  5
866
330
864
100
AcDbEntity
  8
cotas
100
AcDbLine
 10
1624.580231262656
 20
986.907138054884
 30
0.0
 11
1624.580231262656
 21
1013.736076194112
 31
0.0
  0
LINE
  5
867
330
864
100
AcDbEntity
  8
cotas
100
AcDbLine
 10
629.5802312626561
 20
1008.736076194112
 30
0.0
 11
1614.580231262656
 21
1008.736076194112
 31
0.0
  0
SOLID
  5
868
330
864
100
AcDbEntity
  8
cotas
100
AcDbTrace
 10
629.5802312626561
 20
1010.402742860779
 30
0.0
 11
629.5802312626561
 21
1007.069409527446
 31
0.0
 12
619.580231262656
 22
1008.736076194112
 32
0.0
 13
619.580231262656
 23
1008.736076194112
 33
0.0
  0
SOLID
  5
869
330
864
100
AcDbEntity
  8
cotas
100
AcDbTrace
 10
1614.580231262656
 20
1010.402742860779
 30
0.0
 11
1614.580231262656
 21
1007.069409527446
 31
0.0
 12
1624.580231262656
 22
1008.736076194112
 32
0.0
 13
1624.580231262656
 23
1008.736076194112
 33
0.0
  0
MTEXT
  5
86A
330
864
100
AcDbEntity
  8
cotas
100
AcDbMText
 10
1164.040516337027
 20
1018.940911654152
 30
0.0
 40
10.0
 41
0.0
 71
     5
 72
     1
  1
1005
  7
SANINDUSA
 73
     1
 44
1.0
1001
ACAD
1000
MTEXTBEGIN
1070
    73
1070
     1
1070
    44
1040
1.0
1070
    74
1070
     0
1000
MTEXTEND
  0
POINT
  5
86B
330
864
100
AcDbEntity
  8
Defpoints
 62
     0
100
AcDbPoint
 10
619.580231262656
 20
981.9071380548841
 30
0.0
  0
POINT
  5
86C
330
864
100
AcDbEntity
  8
Defpoints
 62
     0
100
AcDbPoint
 10
1624.580231262656
 20
981.9071380548841
 30
0.0
  0
POINT
  5
86D
330
864
100
AcDbEntity
  8
Defpoints
 62
     0
100
AcDbPoint
 10
1624.580231262656
 20
1008.736076194112
 30
0.0
  0
ENDBLK
  5
86F
330
864
100
AcDbEntity
  8
0
100
AcDbBlockEnd
  0
BLOCK
  5
876
330
870
100
AcDbEntity
  8
0
100
AcDbBlockBegin
  2
*D81
 70
     1
 10
0.0
 20
0.0
 30
0.0
  3
*D81
  1

  0
LINE
  5
96F
330
870
100
AcDbEntity
  8
cotas
100
AcDbLine
 10
651.4787213938791
 20
950.9765653181418
 30
0.0
 11
627.8612873620516
 21
978.1342517761153
 31
0.0
  0
MTEXT
  5
970
330
870
100
AcDbEntity
  8
cotas
100
AcDbMText
 10
650.5753820440816
 20
967.4129438956866
 30
0.0
 40
10.0
 41
0.0
 71
     5
 72
     1
  1
R5
  7
SANINDUSA
 11
0.6562112198804041
 21
-0.7545772557552155
 31
0.0
 73
     1
 44
1.0
1001
ACAD
1000
MTEXTBEGIN
1070
    73
1070
     1
1070
    44
1040
1.0
1070
    74
1070
     0
1000
MTEXTEND
  0
SOLID
  5
971
330
870
100
AcDbEntity
  8
cotas
100
AcDbTrace
 10
629.1189161216436
 20
979.2279371425827
 30
0.0
 11
626.6036586024595
 21
977.0405664096479
 31
0.0
 12
621.2991751632475
 22
985.6800243336675
 32
0.0
 13
621.2991751632475
 23
985.6800243336675
 33
0.0
  0
POINT
  5
972
330
870
100
AcDbEntity
  8
Defpoints
 62
     0
100
AcDbPoint
 10
621.2991751632475
 20
985.6800243336675
 30
0.0
  0
POINT
  5
973
330
870
100
AcDbEntity
  8
Defpoints
 62
     0
100
AcDbPoint
 10
624.5802312626559
 20
981.9071380548839
 30
0.0
  0
ENDBLK
  5
877
330
870
100
AcDbEntity
  8
0
100
AcDbBlockEnd
  0
BLOCK
  5
87E
330
878
100
AcDbEntity
  8
0
100
AcDbBlockBegin
  2
*D82
 70
     1
 10
0.0
 20
0.0
 30
0.0
  3
*D82
  1

  0
LINE
  5
964
330
878
100
AcDbEntity
  8
cotas
100
AcDbLine
 10
1557.555369521869
 20
941.4270385535699
 30
0.0
 11
1615.393077452833
 21
979.1744209138562
 31
0.0
  0
MTEXT
  5
965
330
878
100
AcDbEntity
  8
cotas
100
AcDbMText
 10
1562.915704892362
 20
956.9910151482936
 30
0.0
 40
10.0
 41
0.0
 71
     5
 72
     1
  1
R5
  7
SANINDUSA
 11
0.8374307619648732
 21
0.5465434282057848
 31
0.0
 73
     1
 44
1.0
1001
ACAD
1000
MTEXTBEGIN
1070
    73
1070
     1
1070
    44
1040
1.0
1070
    74
1070
     0
1000
MTEXTEND
  0
SOLID
  5
966
330
878
100
AcDbEntity
  8
cotas
100
AcDbTrace
 10
1614.482171739157
 20
980.5701388504644
 30
0.0
 11
1616.30398316651
 21
977.7787029772481
 31
0.0
 12
1623.767385072482
 22
984.6398551959138
 32
0.0
 13
1623.767385072482
 23
984.6398551959138
 33
0.0
  0
POINT
  5
967
330
878
100
AcDbEntity
  8
Defpoints
 62
     0
100
AcDbPoint
 10
1623.767385072482
 20
984.6398551959138
 30
0.0
  0
POINT
  5
968
330
878
100
AcDbEntity
  8
Defpoints
 62
     0
100
AcDbPoint
 10
1619.580231262656
 20
981.9071380548841
 30
0.0
  0
ENDBLK
  5
87F
330
878
100
AcDbEntity
  8
0
100
AcDbBlockEnd
  0
BLOCK
  5
887
330
880
100
AcDbEntity
  8
0
100
AcDbBlockBegin
  2
*D83
 70
     1
 10
0.0
 20
0.0
 30
0.0
  3
*D83
  1

  0
LINE
  5
969
330
880
100
AcDbEntity
  8
cotas
100
AcDbLine
 10
588.9177487294792
 20
755.4622701711078
 30
0.0
 11
614.0893317252369
 21
781.1860827478814
 31
0.0
  0
MTEXT
  5
96A
330
880
100
AcDbEntity
  8
cotas
100
AcDbMText
 10
590.7848017384427
 20
771.817228923333
 30
0.0
 40
10.0
 41
0.0
 71
     5
 72
     1
  1
R5
  7
SANINDUSA
 11
0.6993933024945571
 21
0.7147370204667988
 31
0.0
 73
     1
 44
1.0
1001
ACAD
1000
MTEXTBEGIN
1070
    73
1070
     1
1070
    44
1040
1.0
1070
    74
1070
     0
1000
MTEXTEND
  0
LINE
  5
96B
330
880
100
AcDbEntity
  8
cotas
100
AcDbLine
 10
624.580231262656
 20
791.9071380548841
 30
0.0
 11
621.0832647501824
 21
788.3334529525493
 31
0.0
  0
SOLID
  5
96C
330
880
100
AcDbEntity
  8
cotas
100
AcDbTrace
 10
612.8981033577922
 20
782.351738252039
 30
0.0
 11
615.2805600926816
 21
780.0204272437238
 31
0.0
 12
621.0832647501824
 22
788.3334529525493
 32
0.0
 13
621.0832647501824
 23
788.3334529525493
 33
0.0
  0
POINT
  5
96D
330
880
100
AcDbEntity
  8
Defpoints
 62
     0
100
AcDbPoint
 10
621.0832647501824
 20
788.3334529525493
 30
0.0
  0
POINT
  5
96E
330
880
100
AcDbEntity
  8
Defpoints
 62
     0
100
AcDbPoint
 10
624.580231262656
 20
791.9071380548841
 30
0.0
  0
ENDBLK
  5
888
330
880
100
AcDbEntity
  8
0
100
AcDbBlockEnd
  0
BLOCK
  5
890
330
889
100
AcDbEntity
  8
0
100
AcDbBlockBegin
  2
*D84
 70
     1
 10
0.0
 20
0.0
 30
0.0
  3
*D84
  1

  0
LINE
  5
95E
330
889
100
AcDbEntity
  8
cotas
100
AcDbLine
 10
1647.319620602962
 20
749.122008225448
 30
0.0
 11
1627.740379578964
 21
779.3209559707171
 31
0.0
  0
MTEXT
  5
95F
330
889
100
AcDbEntity
  8
cotas
100
AcDbMText
 10
1648.728182928268
 20
765.5228165866535
 30
0.0
 40
10.0
 41
0.0
 71
     5
 72
     1
  1
R5
  7
SANINDUSA
 11
0.5440098877539237
 21
-0.8390788056112272
 31
0.0
 73
     1
 44
1.0
1001
ACAD
1000
MTEXTBEGIN
1070
    73
1070
     1
1070
    44
1040
1.0
1070
    74
1070
     0
1000
MTEXTEND
  0
LINE
  5
960
330
889
100
AcDbEntity
  8
cotas
100
AcDbLine
 10
1619.580231262656
 20
791.9071380548841
 30
0.0
 11
1622.300280701425
 21
787.7117440268293
 31
0.0
  0
SOLID
  5
961
330
889
100
AcDbEntity
  8
cotas
100
AcDbTrace
 10
1629.138844254983
 20
780.2276391169737
 30
0.0
 11
1626.341914902945
 21
778.4142728244604
 31
0.0
 12
1622.300280701425
 22
787.7117440268293
 32
0.0
 13
1622.300280701425
 23
787.7117440268293
 33
0.0
  0
POINT
  5
962
330
889
100
AcDbEntity
  8
Defpoints
 62
     0
100
AcDbPoint
 10
1622.300280701425
 20
787.7117440268293
 30
0.0
  0
POINT
  5
963
330
889
100
AcDbEntity
  8
Defpoints
 62
     0
100
AcDbPoint
 10
1619.580231262656
 20
791.9071380548841
 30
0.0
  0
ENDBLK
  5
891
330
889
100
AcDbEntity
  8
0
100
AcDbBlockEnd
  0
BLOCK
  5
89C
330
892
100
AcDbEntity
  8
0
100
AcDbBlockBegin
  2
*D85
 70
     1
 10
0.0
 20
0.0
 30
0.0
  3
*D85
  1

  0
LINE
  5
893
330
892
100
AcDbEntity
  8
cotas
100
AcDbLine
 10
174.3204918090382
 20
986.907138054884
 30
0.0
 11
174.3204918090382
 21
1012.385123164588
 31
0.0
  0
LINE
  5
894
330
892
100
AcDbEntity
  8
cotas
100
AcDbLine
 10
474.3204918090382
 20
986.907138054884
 30
0.0
 11
474.3204918090382
 21
1012.385123164588
 31
0.0
  0
LINE
  5
895
330
892
100
AcDbEntity
  8
cotas
100
AcDbLine
 10
184.3204918090382
 20
1007.385123164588
 30
0.0
 11
464.3204918090382
 21
1007.385123164588
 31
0.0
  0
SOLID
  5
896
330
892
100
AcDbEntity
  8
cotas
100
AcDbTrace
 10
184.3204918090382
 20
1009.051789831255
 30
0.0
 11
184.3204918090382
 21
1005.718456497922
 31
0.0
 12
174.3204918090382
 22
1007.385123164588
 32
0.0
 13
174.3204918090382
 23
1007.385123164588
 33
0.0
  0
SOLID
  5
897
330
892
100
AcDbEntity
  8
cotas
100
AcDbTrace
 10
464.3204918090382
 20
1009.051789831255
 30
0.0
 11
464.3204918090382
 21
1005.718456497922
 31
0.0
 12
474.3204918090382
 22
1007.385123164588
 32
0.0
 13
474.3204918090382
 23
1007.385123164588
 33
0.0
  0
MTEXT
  5
898
330
892
100
AcDbEntity
  8
cotas
100
AcDbMText
 10
324.3204918090382
 20
1017.59331658299
 30
0.0
 40
10.0
 41
0.0
 71
     5
 72
     1
  1
300
  7
SANINDUSA
 73
     1
 44
1.0
1001
ACAD
1000
MTEXTBEGIN
1070
    73
1070
     1
1070
    44
1040
1.0
1070
    74
1070
     0
1000
MTEXTEND
  0
POINT
  5
899
330
892
100
AcDbEntity
  8
Defpoints
 62
     0
100
AcDbPoint
 10
174.3204918090382
 20
981.9071380548841
 30
0.0
  0
POINT
  5
89A
330
892
100
AcDbEntity
  8
Defpoints
 62
     0
100
AcDbPoint
 10
474.3204918090382
 20
981.9071380548841
 30
0.0
  0
POINT
  5
89B
330
892
100
AcDbEntity
  8
Defpoints
 62
     0
100
AcDbPoint
 10
474.3204918090382
 20
1007.385123164588
 30
0.0
  0
ENDBLK
  5
89D
330
892
100
AcDbEntity
  8
0
100
AcDbBlockEnd
  0
BLOCK
  5
8A8
330
89E
100
AcDbEntity
  8
0
100
AcDbBlockBegin
  2
*D86
 70
     1
 10
0.0
 20
0.0
 30
0.0
  3
*D86
  1

  0
LINE
  5
89F
330
89E
100
AcDbEntity
  8
cotas
100
AcDbLine
 10
461.8204918090382
 20
986.907138054884
 30
0.0
 11
508.8541719249447
 21
986.907138054884
 31
0.0
  0
LINE
  5
8A0
330
89E
100
AcDbEntity
  8
cotas
100
AcDbLine
 10
461.8204918090382
 20
786.907138054884
 30
0.0
 11
508.8541719249446
 21
786.907138054884
 31
0.0
  0
LINE
  5
8A1
330
89E
100
AcDbEntity
  8
cotas
100
AcDbLine
 10
503.8541719249447
 20
976.907138054884
 30
0.0
 11
503.8541719249447
 21
796.907138054884
 31
0.0
  0
SOLID
  5
8A2
330
89E
100
AcDbEntity
  8
cotas
100
AcDbTrace
 10
502.187505258278
 20
976.907138054884
 30
0.0
 11
505.5208385916114
 21
976.907138054884
 31
0.0
 12
503.8541719249447
 22
986.907138054884
 32
0.0
 13
503.8541719249447
 23
986.907138054884
 33
0.0
  0
SOLID
  5
8A3
330
89E
100
AcDbEntity
  8
cotas
100
AcDbTrace
 10
502.187505258278
 20
796.907138054884
 30
0.0
 11
505.5208385916113
 21
796.907138054884
 31
0.0
 12
503.8541719249447
 22
786.907138054884
 32
0.0
 13
503.8541719249447
 23
786.907138054884
 33
0.0
  0
MTEXT
  5
8A4
330
89E
100
AcDbEntity
  8
cotas
100
AcDbMText
 10
493.6459785065429
 20
886.9071380548842
 30
0.0
 40
10.0
 41
0.0
 71
     5
 72
     1
  1
200
  7
SANINDUSA
 11
0.0000000000000001
 21
1.0
 31
0.0
 73
     1
 44
1.0
1001
ACAD
1000
MTEXTBEGIN
1070
    73
1070
     1
1070
    44
1040
1.0
1070
    74
1070
     0
1000
MTEXTEND
  0
POINT
  5
8A5
330
89E
100
AcDbEntity
  8
Defpoints
 62
     0
100
AcDbPoint
 10
456.8204918090382
 20
986.907138054884
 30
0.0
  0
POINT
  5
8A6
330
89E
100
AcDbEntity
  8
Defpoints
 62
     0
100
AcDbPoint
 10
456.8204918090382
 20
786.907138054884
 30
0.0
  0
POINT
  5
8A7
330
89E
100
AcDbEntity
  8
Defpoints
 62
     0
100
AcDbPoint
 10
503.8541719249447
 20
786.907138054884
 30
0.0
  0
ENDBLK
  5
8A9
330
89E
100
AcDbEntity
  8
0
100
AcDbBlockEnd
  0
BLOCK
  5
8D0
330
8C6
100
AcDbEntity
  8
0
100
AcDbBlockBegin
  2
*D87
 70
     1
 10
0.0
 20
0.0
 30
0.0
  3
*D87
  1

  0
LINE
  5
8C7
330
8C6
100
AcDbEntity
  8
cotas
100
AcDbLine
 10
2835.166700834696
 20
594.916820653531
 30
0.0
 11
2891.424019250978
 21
594.916820653531
 31
0.0
  0
LINE
  5
8C8
330
8C6
100
AcDbEntity
  8
cotas
100
AcDbLine
 10
2698.531619719575
 20
434.9003096780567
 30
0.0
 11
2891.424019250978
 21
434.9003096780567
 31
0.0
  0
LINE
  5
8C9
330
8C6
100
AcDbEntity
  8
cotas
100
AcDbLine
 10
2886.424019250979
 20
584.9168206535311
 30
0.0
 11
2886.424019250979
 21
444.9003096780566
 31
0.0
  0
SOLID
  5
8CA
330
8C6
100
AcDbEntity
  8
cotas
100
AcDbTrace
 10
2884.757352584312
 20
584.9168206535311
 30
0.0
 11
2888.090685917645
 21
584.9168206535311
 31
0.0
 12
2886.424019250979
 22
594.916820653531
 32
0.0
 13
2886.424019250979
 23
594.916820653531
 33
0.0
  0
SOLID
  5
8CB
330
8C6
100
AcDbEntity
  8
cotas
100
AcDbTrace
 10
2884.757352584312
 20
444.9003096780566
 30
0.0
 11
2888.090685917645
 21
444.9003096780566
 31
0.0
 12
2886.424019250979
 22
434.9003096780567
 32
0.0
 13
2886.424019250979
 23
434.9003096780567
 33
0.0
  0
MTEXT
  5
8CC
330
8C6
100
AcDbEntity
  8
cotas
100
AcDbMText
 10
2876.219183790938
 20
514.9085651657943
 30
0.0
 40
10.0
 41
0.0
 71
     5
 72
     1
  1
160
  7
SANINDUSA
 11
0.0000000000000001
 21
1.0
 31
0.0
 73
     1
 44
1.0
1001
ACAD
1000
MTEXTBEGIN
1070
    73
1070
     1
1070
    44
1040
1.0
1070
    74
1070
     0
1000
MTEXTEND
  0
POINT
  5
8CD
330
8C6
100
AcDbEntity
  8
Defpoints
 62
     0
100
AcDbPoint
 10
2830.166700834695
 20
594.916820653531
 30
0.0
  0
POINT
  5
8CE
330
8C6
100
AcDbEntity
  8
Defpoints
 62
     0
100
AcDbPoint
 10
2693.531619719575
 20
434.9003096780567
 30
0.0
  0
POINT
  5
8CF
330
8C6
100
AcDbEntity
  8
Defpoints
 62
     0
100
AcDbPoint
 10
2886.424019250979
 20
434.9003096780567
 30
0.0
  0
ENDBLK
  5
8D1
330
8C6
100
AcDbEntity
  8
0
100
AcDbBlockEnd
  0
BLOCK
  5
8EB
330
8E1
100
AcDbEntity
  8
0
100
AcDbBlockBegin
  2
*D88
 70
     1
 10
0.0
 20
0.0
 30
0.0
  3
*D88
  1

  0
LINE
  5
8E2
330
8E1
100
AcDbEntity
  8
cotas
100
AcDbLine
 10
679.5802312626561
 20
439.56844718988
 30
0.0
 11
679.5802312626561
 21
590.0958429428518
 31
0.0
  0
LINE
  5
8E3
330
8E1
100
AcDbEntity
  8
cotas
100
AcDbLine
 10
619.580231262656
 20
532.5958429428525
 30
0.0
 11
619.580231262656
 21
590.0958429428518
 31
0.0
  0
LINE
  5
8E4
330
8E1
100
AcDbEntity
  8
cotas
100
AcDbLine
 10
669.580231262656
 20
585.0958429428518
 30
0.0
 11
629.5802312626561
 21
585.0958429428518
 31
0.0
  0
SOLID
  5
8E5
330
8E1
100
AcDbEntity
  8
cotas
100
AcDbTrace
 10
669.580231262656
 20
586.7625096095184
 30
0.0
 11
669.580231262656
 21
583.4291762761852
 31
0.0
 12
679.5802312626561
 22
585.0958429428518
 32
0.0
 13
679.5802312626561
 23
585.0958429428518
 33
0.0
  0
SOLID
  5
8E6
330
8E1
100
AcDbEntity
  8
cotas
100
AcDbTrace
 10
629.5802312626561
 20
586.7625096095184
 30
0.0
 11
629.5802312626561
 21
583.4291762761852
 31
0.0
 12
619.580231262656
 22
585.0958429428518
 32
0.0
 13
619.580231262656
 23
585.0958429428518
 33
0.0
  0
MTEXT
  5
8E7
330
8E1
100
AcDbEntity
  8
cotas
100
AcDbMText
 10
649.580231262656
 20
595.3006784028921
 30
0.0
 40
10.0
 41
0.0
 71
     5
 72
     1
  1
60
  7
SANINDUSA
 73
     1
 44
1.0
1001
ACAD
1000
MTEXTBEGIN
1070
    73
1070
     1
1070
    44
1040
1.0
1070
    74
1070
     0
1000
MTEXTEND
  0
POINT
  5
8E8
330
8E1
100
AcDbEntity
  8
Defpoints
 62
     0
100
AcDbPoint
 10
679.5802312626561
 20
434.5684471898799
 30
0.0
  0
POINT
  5
8E9
330
8E1
100
AcDbEntity
  8
Defpoints
 62
     0
100
AcDbPoint
 10
619.580231262656
 20
527.5958429428525
 30
0.0
  0
POINT
  5
8EA
330
8E1
100
AcDbEntity
  8
Defpoints
 62
     0
100
AcDbPoint
 10
619.580231262656
 20
585.0958429428518
 30
0.0
  0
ENDBLK
  5
8EC
330
8E1
100
AcDbEntity
  8
0
100
AcDbBlockEnd
  0
BLOCK
  5
924
330
91A
100
AcDbEntity
  8
0
100
AcDbBlockBegin
  2
*D89
 70
     1
 10
0.0
 20
0.0
 30
0.0
  3
*D89
  1

  0
LINE
  5
91B
330
91A
100
AcDbEntity
  8
cotas
100
AcDbLine
 10
1830.166700834695
 20
594.9168206535288
 30
0.0
 11
1797.188834082717
 21
594.9168206535288
 31
0.0
  0
LINE
  5
91C
330
91A
100
AcDbEntity
  8
cotas
100
AcDbLine
 10
1966.802106219345
 20
434.8979113288775
 30
0.0
 11
1797.188834082717
 21
434.8979113288775
 31
0.0
  0
LINE
  5
91D
330
91A
100
AcDbEntity
  8
cotas
100
AcDbLine
 10
1802.188834082717
 20
584.9168206535288
 30
0.0
 11
1802.188834082716
 21
444.8979113288776
 31
0.0
  0
SOLID
  5
91E
330
91A
100
AcDbEntity
  8
cotas
100
AcDbTrace
 10
1800.52216741605
 20
584.9168206535288
 30
0.0
 11
1803.855500749383
 21
584.9168206535288
 31
0.0
 12
1802.188834082717
 22
594.9168206535288
 32
0.0
 13
1802.188834082717
 23
594.9168206535288
 33
0.0
  0
SOLID
  5
91F
330
91A
100
AcDbEntity
  8
cotas
100
AcDbTrace
 10
1800.52216741605
 20
444.8979113288776
 30
0.0
 11
1803.855500749383
 21
444.8979113288776
 31
0.0
 12
1802.188834082716
 22
434.8979113288775
 32
0.0
 13
1802.188834082716
 23
434.8979113288775
 33
0.0
  0
MTEXT
  5
920
330
91A
100
AcDbEntity
  8
cotas
100
AcDbMText
 10
1791.983998622676
 20
514.9073659912034
 30
0.0
 40
10.0
 41
0.0
 71
     5
 72
     1
  1
160
  7
SANINDUSA
 11
0.0000000000000001
 21
1.0
 31
0.0
 73
     1
 44
1.0
1001
ACAD
1000
MTEXTBEGIN
1070
    73
1070
     1
1070
    44
1040
1.0
1070
    74
1070
     0
1000
MTEXTEND
  0
POINT
  5
921
330
91A
100
AcDbEntity
  8
Defpoints
 62
     0
100
AcDbPoint
 10
1835.166700834695
 20
594.9168206535288
 30
0.0
  0
POINT
  5
922
330
91A
100
AcDbEntity
  8
Defpoints
 62
     0
100
AcDbPoint
 10
1971.802106219345
 20
434.8979113288775
 30
0.0
  0
POINT
  5
923
330
91A
100
AcDbEntity
  8
Defpoints
 62
     0
100
AcDbPoint
 10
1802.188834082716
 20
434.8979113288775
 30
0.0
  0
ENDBLK
  5
925
330
91A
100
AcDbEntity
  8
0
100
AcDbBlockEnd
  0
ENDSEC
  0
SECTION
  2
ENTITIES
  0
CIRCLE
  5
477
330
23
100
AcDbEntity
  8
SANINDUSA
100
AcDbCircle
 10
1059.116183910301
 20
904.3269280613975
 30
0.0
 40
0.0235000000000019
  0
LWPOLYLINE
  5
478
330
23
100
AcDbEntity
  8
SANINDUSA
100
AcDbPolyline
 90
       39
 70
     0
 43
0.0
 10
1059.080763899019
 20
904.3269280613975
 10
1059.081294976404
 20
904.3206733748892
 10
1059.082861118248
 20
904.314595293218
 10
1059.085436366728
 20
904.3088740845787
 10
1059.088941835096
 20
904.3036720370517
 10
1059.093230895927
 20
904.2992162210511
 10
1059.098218731811
 20
904.2955607222037
 10
1059.103626810244
 20
904.2928970204311
 10
1059.109410785368
 20
904.2911979751306
 10
1059.11524542444
 20
904.2905419999378
 10
1059.121107094219
 20
904.2908791647867
 10
1059.126752905777
 20
904.2921895058469
 10
1059.132104687622
 20
904.2944144168513
 10
1059.137049697569
 20
904.297523378359
 10
1059.141422830751
 20
904.3013963205384
 10
1059.145184360674
 20
904.3060430390404
 10
1059.148141823938
 20
904.3112397910672
 10
1059.15025653713
 20
904.3170017981546
 10
1059.151400290659
 20
904.3230329258012
 10
1059.151526056459
 20
904.3292838269488
 10
1059.150613956383
 20
904.3354688780025
 10
1059.148659847906
 20
904.3414408247562
 10
1059.145728610685
 20
904.3469975022244
 10
1059.141923658779
 20
904.3519203038529
 10
1059.137334935596
 20
904.3561207176761
 10
1059.132204048565
 20
904.3593854913131
 10
1059.126589678457
 20
904.3617223808185
 10
1059.120816849401
 20
904.3630136334913
 10
1059.114908628395
 20
904.3633071528391
 10
1059.109144829443
 20
904.3626000256853
 10
1059.1035787689
 20
904.3609446892158
 10
1059.098361693552
 20
904.3583775991217
 10
1059.093633912733
 20
904.3549925451742
 10
1059.089448832205
 20
904.3507923772203
 10
1059.086000554493
 20
904.3459678655134
 10
1059.083323441675
 20
904.3404979528503
 10
1059.081573926142
 20
904.3346637421862
 10
1059.080967419079
 20
904.3308170586469
 10
1059.080763899019
 20
904.3269280613975
  0
LWPOLYLINE
  5
485
330
23
100
AcDbEntity
  8
SANINDUSA
100
AcDbPolyline
 90
        4
 70
     0
 43
0.0
 10
1059.472679786613
 20
904.2329772384482
 10
1059.14110290282
 20
904.2330453814583
 10
1058.950395278862
 20
904.2330315308289
 10
1058.759688008806
 20
904.2329772384482
  0
LWPOLYLINE
  5
486
330
23
100
AcDbEntity
  8
SANINDUSA
100
AcDbPolyline
 90
        4
 70
     0
 43
0.0
 10
1058.754733089587
 20
904.4159239651278
 10
1058.754750468066
 20
904.3332858783768
 10
1058.754746832183
 20
904.2856089667992
 10
1058.754733089587
 20
904.2379321576671
  0
LWPOLYLINE
  5
487
330
23
100
AcDbEntity
  8
SANINDUSA
100
AcDbPolyline
 90
        4
 70
     0
 43
0.0
 10
1059.477634720733
 20
904.4159239651278
 10
1059.477617375782
 20
904.3332858783768
 10
1059.477621011665
 20
904.2856089667992
 10
1059.477634720733
 20
904.2379321576671
  0
LWPOLYLINE
  5
488
330
23
100
AcDbEntity
  8
SANINDUSA
100
AcDbPolyline
 90
        4
 70
     0
 43
0.0
 10
1058.759688008806
 20
904.4208788843469
 10
1059.091264896324
 20
904.4208107413368
 10
1059.281972579887
 20
904.420824591966
 10
1059.472679786613
 20
904.4208788843469
  0
LINE
  5
489
330
23
100
AcDbEntity
  8
SANINDUSA
100
AcDbLine
 10
1058.754733091041
 20
904.2379321581364
 30
0.0
 11
1058.734269358609
 21
904.2174684257043
 31
0.0
  0
LINE
  5
48A
330
23
100
AcDbEntity
  8
SANINDUSA
100
AcDbLine
 10
1058.739224274608
 20
904.2125135097057
 30
0.0
 11
1058.75968800704
 21
904.2329772421378
 31
0.0
  0
ARC
  5
48B
330
23
100
AcDbEntity
  8
SANINDUSA
100
AcDbCircle
 10
1058.759793636673
 20
904.2380377855339
 30
0.0
 40
0.0050616493413527
100
AcDbArc
 50
181.1957506145983
 51
268.8042493788893
  0
LINE
  5
48C
330
23
100
AcDbEntity
  8
SANINDUSA
100
AcDbLine
 10
1059.477634729561
 20
904.2379321581364
 30
0.0
 11
1059.498098461993
 21
904.2174684257043
 31
0.0
  0
ARC
  5
48D
330
23
100
AcDbEntity
  8
SANINDUSA
100
AcDbCircle
 10
1059.472574168084
 20
904.2380377914154
 30
0.0
 40
0.005061655026801
100
AcDbArc
 50
271.195643550403
 51
358.8041841355956
  0
LINE
  5
48E
330
23
100
AcDbEntity
  8
SANINDUSA
100
AcDbLine
 10
1059.493143545994
 20
904.2125135097057
 30
0.0
 11
1059.472679813562
 21
904.2329772421378
 31
0.0
  0
LINE
  5
48F
330
23
100
AcDbEntity
  8
SANINDUSA
100
AcDbLine
 10
1058.75968800704
 20
904.4208788806571
 30
0.0
 11
1058.739224274608
 21
904.4413426130892
 31
0.0
  0
LINE
  5
490
330
23
100
AcDbEntity
  8
SANINDUSA
100
AcDbLine
 10
1058.734269358609
 20
904.4363876970908
 30
0.0
 11
1058.754733091041
 21
904.4159239646585
 31
0.0
  0
ARC
  5
491
330
23
100
AcDbEntity
  8
SANINDUSA
100
AcDbCircle
 10
1058.759793636673
 20
904.415818337261
 30
0.0
 40
0.0050616493413525
100
AcDbArc
 50
91.19575062111072
 51
178.8042493854016
  0
LINE
  5
492
330
23
100
AcDbEntity
  8
SANINDUSA
100
AcDbLine
 10
1059.472679813562
 20
904.4208788806571
 30
0.0
 11
1059.493143545994
 21
904.4413426130892
 31
0.0
  0
ARC
  5
493
330
23
100
AcDbEntity
  8
SANINDUSA
100
AcDbCircle
 10
1059.472574168084
 20
904.4158183313795
 30
0.0
 40
0.005061655026801
100
AcDbArc
 50
1.195815864404368
 51
88.80435644959698
  0
LINE
  5
494
330
23
100
AcDbEntity
  8
SANINDUSA
100
AcDbLine
 10
1059.498098461993
 20
904.4363876970908
 30
0.0
 11
1059.477634729561
 21
904.4159239646585
 31
0.0
  0
LINE
  5
495
330
23
100
AcDbEntity
  8
SANINDUSA
100
AcDbLine
 10
1059.588683910301
 20
904.1769280613975
 30
0.0
 11
1058.643683910301
 21
904.1769280613975
 31
0.0
  0
ARC
  5
497
330
23
100
AcDbEntity
  8
SANINDUSA
100
AcDbCircle
 10
1058.643683910301
 20
904.2069280613976
 30
0.0
 40
0.03
100
AcDbArc
 50
180.0
 51
270.0
  0
ARC
  5
499
330
23
100
AcDbEntity
  8
SANINDUSA
100
AcDbCircle
 10
1059.588683910301
 20
904.2069280613976
 30
0.0
 40
0.03
100
AcDbArc
 50
270.0
 51
0.0
  0
LINE
  5
49A
330
23
100
AcDbEntity
  8
SANINDUSA
100
AcDbLine
 10
1058.739224274608
 20
904.2125135097057
 30
0.0
 11
1059.493143545994
 21
904.2125135097057
 31
0.0
  0
ARC
  5
49C
330
23
100
AcDbEntity
  8
SANINDUSA
100
AcDbCircle
 10
1058.739095759843
 20
904.2173399123329
 30
0.0
 40
0.0048281119888363
100
AcDbArc
 50
178.4747708406459
 51
271.5252722371846
  0
ARC
  5
49E
330
23
100
AcDbEntity
  8
SANINDUSA
100
AcDbCircle
 10
1059.493272068332
 20
904.2173399275228
 30
0.0
 40
0.0048281272518268
100
AcDbArc
 50
268.4746975150813
 51
1.525044017935245
  0
CIRCLE
  5
49F
330
23
100
AcDbEntity
  8
SANINDUSA
100
AcDbCircle
 10
1059.558683910301
 20
904.3269280613975
 30
0.0
 40
0.0174999999999999
  0
CIRCLE
  5
4A0
330
23
100
AcDbEntity
  8
SANINDUSA
100
AcDbCircle
 10
1058.673683910301
 20
904.3269280613975
 30
0.0
 40
0.0174999999999999
  0
LINE
  5
4A2
330
23
100
AcDbEntity
  8
SANINDUSA
100
AcDbLine
 10
1059.498098461993
 20
904.2174684257043
 30
0.0
 11
1059.498098461993
 21
904.4363876970908
 31
0.0
  0
LINE
  5
4A4
330
23
100
AcDbEntity
  8
SANINDUSA
100
AcDbLine
 10
1058.734269358609
 20
904.2174684257043
 30
0.0
 11
1058.734269358609
 21
904.4363876970908
 31
0.0
  0
LINE
  5
4A5
330
23
100
AcDbEntity
  8
SANINDUSA
100
AcDbLine
 10
1059.493143545994
 20
904.4413426130892
 30
0.0
 11
1058.739224274608
 21
904.4413426130892
 31
0.0
  0
LINE
  5
4A7
330
23
100
AcDbEntity
  8
SANINDUSA
100
AcDbLine
 10
1058.613683910301
 20
904.4469280613975
 30
0.0
 11
1058.613683910301
 21
904.2069280613976
 31
0.0
  0
LINE
  5
4A9
330
23
100
AcDbEntity
  8
SANINDUSA
100
AcDbLine
 10
1059.618683910301
 20
904.4469280613975
 30
0.0
 11
1059.618683910301
 21
904.2069280613976
 31
0.0
  0
ARC
  5
4AB
330
23
100
AcDbEntity
  8
SANINDUSA
100
AcDbCircle
 10
1059.493272068332
 20
904.4365161952724
 30
0.0
 40
0.0048281272518268
100
AcDbArc
 50
358.4749559820648
 51
91.52530248491871
  0
ARC
  5
4AF
330
23
100
AcDbEntity
  8
SANINDUSA
100
AcDbCircle
 10
1058.739095759843
 20
904.436516210462
 30
0.0
 40
0.0048281119888362
100
AcDbArc
 50
88.4747277628154
 51
181.525229159354
  0
ARC
  5
4C0
330
23
100
AcDbEntity
  8
SANINDUSA
100
AcDbCircle
 10
1059.588683910301
 20
904.4469280613975
 30
0.0
 40
0.03
100
AcDbArc
 50
0.0
 51
90.0
  0
ARC
  5
4C4
330
23
100
AcDbEntity
  8
SANINDUSA
100
AcDbCircle
 10
1058.643683910301
 20
904.4469280613975
 30
0.0
 40
0.03
100
AcDbArc
 50
90.0
 51
180.0
  0
LINE
  5
4C5
330
23
100
AcDbEntity
  8
SANINDUSA
100
AcDbLine
 10
1058.643683910301
 20
904.4769280613975
 30
0.0
 11
1059.588683910301
 21
904.4769280613975
 31
0.0
  0
ARC
  5
4C9
330
23
100
AcDbEntity
  8
SANINDUSA
100
AcDbCircle
 10
1059.837507298707
 20
904.4126104136806
 30
0.0
 40
0.005
100
AcDbArc
 50
90.0
 51
180.0
  0
LINE
  5
4CA
330
23
100
AcDbEntity
  8
SANINDUSA
100
AcDbLine
 10
1059.837507298707
 20
904.4176104136806
 30
0.0
 11
1059.862507298707
 21
904.4176104136806
 31
0.0
  0
ARC
  5
4CB
330
23
100
AcDbEntity
  8
SANINDUSA
100
AcDbCircle
 10
1059.837507298707
 20
904.2226104136805
 30
0.0
 40
0.005
100
AcDbArc
 50
180.0
 51
270.0
  0
LINE
  5
4CC
330
23
100
AcDbEntity
  8
SANINDUSA
100
AcDbLine
 10
1059.862507298707
 20
904.2176104136805
 30
0.0
 11
1059.837507298707
 21
904.2176104136805
 31
0.0
  0
LINE
  5
4CE
330
23
100
AcDbEntity
  8
SANINDUSA
100
AcDbLine
 10
1059.832507298707
 20
904.2226104136805
 30
0.0
 11
1059.832507298707
 21
904.4126104136806
 31
0.0
  0
LINE
  5
4D0
330
23
100
AcDbEntity
  8
SANINDUSA
100
AcDbLine
 10
1060.132507298707
 20
904.4126104136806
 30
0.0
 11
1060.132507298707
 21
904.2226104136805
 31
0.0
  0
ARC
  5
4D4
330
23
100
AcDbEntity
  8
SANINDUSA
100
AcDbCircle
 10
1060.127507298707
 20
904.4126104136806
 30
0.0
 40
0.005
100
AcDbArc
 50
0.0
 51
90.0
  0
LINE
  5
4D5
330
23
100
AcDbEntity
  8
SANINDUSA
100
AcDbLine
 10
1060.102507298707
 20
904.4176104136806
 30
0.0
 11
1060.127507298707
 21
904.4176104136806
 31
0.0
  0
LINE
  5
4D9
330
23
100
AcDbEntity
  8
SANINDUSA
100
AcDbLine
 10
1059.862507298707
 20
904.4176104136806
 30
0.0
 11
1060.102507298707
 21
904.4176104136806
 31
0.0
  0
LINE
  5
4DC
330
23
100
AcDbEntity
  8
SANINDUSA
100
AcDbLine
 10
1060.102507298707
 20
904.2176104136805
 30
0.0
 11
1059.862507298707
 21
904.2176104136805
 31
0.0
  0
ARC
  5
4DD
330
23
100
AcDbEntity
  8
SANINDUSA
100
AcDbCircle
 10
1060.127507298707
 20
904.2226104136805
 30
0.0
 40
0.005
100
AcDbArc
 50
270.0
 51
0.0
  0
LINE
  5
4E0
330
23
100
AcDbEntity
  8
SANINDUSA
100
AcDbLine
 10
1060.127507298707
 20
904.2176104136805
 30
0.0
 11
1060.102507298707
 21
904.2176104136805
 31
0.0
  0
ARC
  5
4E1
330
23
100
AcDbEntity
  8
SANINDUSA
100
AcDbCircle
 10
1061.33766076949
 20
904.2226104136805
 30
0.0
 40
0.005
100
AcDbArc
 50
270.0
 51
0.0
  0
LINE
  5
4E2
330
23
100
AcDbEntity
  8
SANINDUSA
100
AcDbLine
 10
1061.33766076949
 20
904.2176104136805
 30
0.0
 11
1061.31266076949
 21
904.2176104136805
 31
0.0
  0
ARC
  5
4E3
330
23
100
AcDbEntity
  8
SANINDUSA
100
AcDbCircle
 10
1061.33766076949
 20
904.4126104136806
 30
0.0
 40
0.005
100
AcDbArc
 50
0.0
 51
90.0
  0
LINE
  5
4E4
330
23
100
AcDbEntity
  8
SANINDUSA
100
AcDbLine
 10
1061.31266076949
 20
904.4176104136806
 30
0.0
 11
1061.33766076949
 21
904.4176104136806
 31
0.0
  0
LINE
  5
4E5
330
23
100
AcDbEntity
  8
SANINDUSA
100
AcDbLine
 10
1061.34266076949
 20
904.4126104136806
 30
0.0
 11
1061.34266076949
 21
904.2226104136805
 31
0.0
  0
LINE
  5
4E8
330
23
100
AcDbEntity
  8
SANINDUSA
100
AcDbLine
 10
1060.36766076949
 20
904.4176104136806
 30
0.0
 11
1061.31266076949
 21
904.4176104136806
 31
0.0
  0
ARC
  5
4EA
330
23
100
AcDbEntity
  8
SANINDUSA
100
AcDbCircle
 10
1060.34266076949
 20
904.2226104136805
 30
0.0
 40
0.005
100
AcDbArc
 50
180.0
 51
270.0
  0
LINE
  5
4EB
330
23
100
AcDbEntity
  8
SANINDUSA
100
AcDbLine
 10
1060.34266076949
 20
904.2176104136805
 30
0.0
 11
1060.36766076949
 21
904.2176104136805
 31
0.0
  0
LINE
  5
4EC
330
23
100
AcDbEntity
  8
SANINDUSA
100
AcDbLine
 10
1060.33766076949
 20
904.4126104136806
 30
0.0
 11
1060.33766076949
 21
904.2226104136805
 31
0.0
  0
LINE
  5
4EF
330
23
100
AcDbEntity
  8
SANINDUSA
100
AcDbLine
 10
1061.31266076949
 20
904.2176104136805
 30
0.0
 11
1060.36766076949
 21
904.2176104136805
 31
0.0
  0
LINE
  5
4F2
330
23
100
AcDbEntity
  8
SANINDUSA
100
AcDbLine
 10
1060.36766076949
 20
904.4176104136806
 30
0.0
 11
1060.34266076949
 21
904.4176104136806
 31
0.0
  0
ARC
  5
4F3
330
23
100
AcDbEntity
  8
SANINDUSA
100
AcDbCircle
 10
1060.34266076949
 20
904.4126104136806
 30
0.0
 40
0.005
100
AcDbArc
 50
90.0
 51
180.0
  0
LWPOLYLINE
  5
591
330
23
100
AcDbEntity
  8
SANINDUSA
100
AcDbPolyline
 90
        6
 70
   128
 43
0.0
 10
1061.99432422784
 20
904.2416938313346
 10
1061.971404632599
 20
904.2418078252177
 10
1061.898527761967
 20
904.2424916842083
 10
1061.82565712002
 20
904.2436643608908
 10
1061.752782857091
 20
904.2453260191779
 10
1061.679921375633
 20
904.2474761524301
  0
LWPOLYLINE
  5
592
330
23
100
AcDbEntity
  8
SANINDUSA
100
AcDbPolyline
 90
        4
 70
   128
 43
0.0
 10
1062.393863609106
 20
904.2474761524301
 10
1062.289350917608
 20
904.2445442595582
 10
1062.184805205137
 20
904.2426174947124
 10
1062.079460790426
 20
904.2416938313346
  0
LINE
  5
593
330
23
100
AcDbEntity
  8
SANINDUSA
100
AcDbLine
 10
1062.060392504961
 20
904.2413063192006
 30
0.0
 11
1062.072312494785
 21
904.251668221603
 31
0.0
  0
LINE
  5
595
330
23
100
AcDbEntity
  8
SANINDUSA
100
AcDbLine
 10
1062.001472493679
 20
904.251668221603
 30
0.0
 11
1062.013392504961
 21
904.2413063192006
 31
0.0
  0
ARC
  5
596
330
23
100
AcDbEntity
  8
SANINDUSA
100
AcDbCircle
 10
1062.036892494232
 20
903.5144563449021
 30
0.0
 40
0.7380622789357331
100
AcDbArc
 50
87.24928857648096
 51
92.75071142351903
  0
LINE
  5
597
330
23
100
AcDbEntity
  8
SANINDUSA
100
AcDbLine
 10
1062.073587140114
 20
904.2267024585109
 30
0.0
 11
1062.074499397691
 21
904.2371296427967
 31
0.0
  0
LINE
  5
598
330
23
100
AcDbEntity
  8
SANINDUSA
100
AcDbLine
 10
1061.999285612231
 20
904.2371296427967
 30
0.0
 11
1062.000197878153
 21
904.2267024585109
 31
0.0
  0
LINE
  5
599
330
23
100
AcDbEntity
  8
SANINDUSA
100
AcDbLine
 10
1061.611892504961
 20
904.4066104136806
 30
0.0
 11
1061.611892504961
 21
904.4166104136806
 31
0.0
  0
ARC
  5
59A
330
23
100
AcDbEntity
  8
SANINDUSA
100
AcDbCircle
 10
1061.612892504961
 20
904.4166104136806
 30
0.0
 40
0.0010000000000002
100
AcDbArc
 50
90.0
 51
180.0
  0
LINE
  5
59B
330
23
100
AcDbEntity
  8
SANINDUSA
100
AcDbLine
 10
1061.612892504961
 20
904.4176104136806
 30
0.0
 11
1061.65002303727
 21
904.4176104136806
 31
0.0
  0
ARC
  5
59C
330
23
100
AcDbEntity
  8
SANINDUSA
100
AcDbCircle
 10
1061.65002303727
 20
904.4126104136806
 30
0.0
 40
0.005
100
AcDbArc
 50
7.700000002507273
 51
90.0
  0
LINE
  5
59D
330
23
100
AcDbEntity
  8
SANINDUSA
100
AcDbLine
 10
1061.654977953269
 20
904.4132803446077
 30
0.0
 11
1061.675459152332
 21
904.2617981293487
 31
0.0
  0
ARC
  5
59E
330
23
100
AcDbEntity
  8
SANINDUSA
100
AcDbCircle
 10
1061.68041406833
 20
904.2624680602758
 30
0.0
 40
0.005
100
AcDbArc
 50
187.7000000025072
 51
268.117711466869
  0
LWPOLYLINE
  5
59F
330
23
100
AcDbEntity
  8
SANINDUSA
100
AcDbPolyline
 90
        5
 70
   128
 43
0.0
 10
1062.001472493679
 20
904.251668221603
 10
1061.92116173175
 20
904.2522275217871
 10
1061.840857287914
 20
904.2533810355763
 10
1061.760546004445
 20
904.2551289715866
 10
1061.680249838204
 20
904.2574707635742
  0
LINE
  5
5A0
330
23
100
AcDbEntity
  8
SANINDUSA
100
AcDbLine
 10
1062.013392504961
 20
904.2413063192006
 30
0.0
 11
1062.013392504961
 21
904.2267024525797
 31
0.0
  0
LINE
  5
5A1
330
23
100
AcDbEntity
  8
SANINDUSA
100
AcDbLine
 10
1062.013392504961
 20
904.2267024525797
 30
0.0
 11
1062.000197878153
 21
904.2267024585109
 31
0.0
  0
ARC
  5
5A2
330
23
100
AcDbEntity
  8
SANINDUSA
100
AcDbCircle
 10
1061.68041406833
 20
904.2624680602758
 30
0.0
 40
0.015
100
AcDbArc
 50
187.7000000025072
 51
268.117711466869
  0
LINE
  5
5A3
330
23
100
AcDbEntity
  8
SANINDUSA
100
AcDbLine
 10
1061.665549320335
 20
904.2604582674945
 30
0.0
 11
1061.646509428497
 21
904.4012803446076
 31
0.0
  0
ARC
  5
5A4
330
23
100
AcDbEntity
  8
SANINDUSA
100
AcDbCircle
 10
1061.641554512499
 20
904.4006104136805
 30
0.0
 40
0.005
100
AcDbArc
 50
7.700000002507273
 51
90.0
  0
LINE
  5
5A5
330
23
100
AcDbEntity
  8
SANINDUSA
100
AcDbLine
 10
1061.612892504961
 20
904.4056104136805
 30
0.0
 11
1061.641554512499
 21
904.4056104136805
 31
0.0
  0
ARC
  5
5A6
330
23
100
AcDbEntity
  8
SANINDUSA
100
AcDbCircle
 10
1061.612892504961
 20
904.4066104136806
 30
0.0
 40
0.0010000000000002
100
AcDbArc
 50
180.0
 51
270.0
  0
ARC
  5
5A7
330
23
100
AcDbEntity
  8
SANINDUSA
100
AcDbCircle
 10
1061.99430463874
 20
904.236693864083
 30
0.0
 40
0.0050000000000001
100
AcDbArc
 50
5.000000002780105
 51
89.7754603955513
  0
ARC
  5
5A8
330
23
100
AcDbEntity
  8
SANINDUSA
100
AcDbCircle
 10
1062.393370941592
 20
904.2624680602758
 30
0.0
 40
0.015
100
AcDbArc
 50
271.882288533131
 51
352.2999999974927
  0
LINE
  5
5A9
330
23
100
AcDbEntity
  8
SANINDUSA
100
AcDbLine
 10
1062.073587140114
 20
904.2267024585109
 30
0.0
 11
1062.060392504961
 21
904.2267024525797
 31
0.0
  0
LINE
  5
5AA
330
23
100
AcDbEntity
  8
SANINDUSA
100
AcDbLine
 10
1062.060392504961
 20
904.2267024525797
 30
0.0
 11
1062.060392504961
 21
904.2413063192006
 31
0.0
  0
LWPOLYLINE
  5
5AB
330
23
100
AcDbEntity
  8
SANINDUSA
100
AcDbPolyline
 90
        5
 70
   128
 43
0.0
 10
1062.393535187513
 20
904.2574707635742
 10
1062.300957074434
 20
904.2548231699568
 10
1062.208353092939
 20
904.2529649355511
 10
1062.140336146623
 20
904.2521034398179
 10
1062.072312494785
 20
904.251668221603
  0
ARC
  5
5AC
330
23
100
AcDbEntity
  8
SANINDUSA
100
AcDbCircle
 10
1062.393370941592
 20
904.2624680602758
 30
0.0
 40
0.005
100
AcDbArc
 50
271.882288533131
 51
352.2999999974927
  0
LINE
  5
5AD
330
23
100
AcDbEntity
  8
SANINDUSA
100
AcDbLine
 10
1062.39832585759
 20
904.2617981293487
 30
0.0
 11
1062.418807056653
 21
904.4132803446077
 31
0.0
  0
ARC
  5
5AE
330
23
100
AcDbEntity
  8
SANINDUSA
100
AcDbCircle
 10
1062.423761972651
 20
904.4126104136806
 30
0.0
 40
0.005
100
AcDbArc
 50
90.0
 51
172.2999999974927
  0
LINE
  5
5AF
330
23
100
AcDbEntity
  8
SANINDUSA
100
AcDbLine
 10
1062.423761972651
 20
904.4176104136806
 30
0.0
 11
1062.460892504961
 21
904.4176104136806
 31
0.0
  0
ARC
  5
5B0
330
23
100
AcDbEntity
  8
SANINDUSA
100
AcDbCircle
 10
1062.460892504961
 20
904.4166104136806
 30
0.0
 40
0.0010000000000002
100
AcDbArc
 50
0.0
 51
90.0
  0
LINE
  5
5B1
330
23
100
AcDbEntity
  8
SANINDUSA
100
AcDbLine
 10
1062.461892504961
 20
904.4166104136806
 30
0.0
 11
1062.461892504961
 21
904.4066104136806
 31
0.0
  0
ARC
  5
5B2
330
23
100
AcDbEntity
  8
SANINDUSA
100
AcDbCircle
 10
1062.460892504961
 20
904.4066104136806
 30
0.0
 40
0.0010000000000002
100
AcDbArc
 50
270.0
 51
0.0
  0
LINE
  5
5B3
330
23
100
AcDbEntity
  8
SANINDUSA
100
AcDbLine
 10
1062.432230497423
 20
904.4056104136805
 30
0.0
 11
1062.460892504961
 21
904.4056104136805
 31
0.0
  0
ARC
  5
5B4
330
23
100
AcDbEntity
  8
SANINDUSA
100
AcDbCircle
 10
1062.432230497423
 20
904.4006104136805
 30
0.0
 40
0.005
100
AcDbArc
 50
90.0
 51
172.2999999974927
  0
LINE
  5
5B5
330
23
100
AcDbEntity
  8
SANINDUSA
100
AcDbLine
 10
1062.427275581424
 20
904.4012803446076
 30
0.0
 11
1062.408235689587
 21
904.2604582674945
 31
0.0
  0
ARC
  5
5B6
330
23
100
AcDbEntity
  8
SANINDUSA
100
AcDbCircle
 10
1062.079480371181
 20
904.236693864083
 30
0.0
 40
0.0050000000000001
100
AcDbArc
 50
90.22453960444869
 51
174.9999999972199
  0
ARC
  5
5B7
330
23
100
AcDbEntity
  8
SANINDUSA
100
AcDbCircle
 10
1061.557853168541
 20
904.3011767471453
 30
0.0
 40
0.005
100
AcDbArc
 50
358.2600000002142
 51
33.4625988858064
  0
LINE
  5
5B8
330
23
100
AcDbEntity
  8
SANINDUSA
100
AcDbLine
 10
1061.562850863069
 20
904.3010249268393
 30
0.0
 11
1061.560616059961
 21
904.2274585933745
 31
0.0
  0
ARC
  5
5B9
330
23
100
AcDbEntity
  8
SANINDUSA
100
AcDbCircle
 10
1061.555618365433
 20
904.2276104136805
 30
0.0
 40
0.0050000000000001
100
AcDbArc
 50
270.0
 51
358.2600000002142
  0
LINE
  5
5BA
330
23
100
AcDbEntity
  8
SANINDUSA
100
AcDbLine
 10
1061.550166007653
 20
904.2226104136805
 30
0.0
 11
1061.555618365433
 21
904.2226104136805
 31
0.0
  0
ARC
  5
5BB
330
23
100
AcDbEntity
  8
SANINDUSA
100
AcDbCircle
 10
1061.550166007653
 20
904.2176104136805
 30
0.0
 40
0.0050000000000002
100
AcDbArc
 50
90.0
 51
150.0000000029213
  0
ARC
  5
5BC
330
23
100
AcDbEntity
  8
SANINDUSA
100
AcDbCircle
 10
1061.541505753615
 20
904.2226104136805
 30
0.0
 40
0.005
100
AcDbArc
 50
270.0
 51
330.0000000029213
  0
LINE
  5
5BD
330
23
100
AcDbEntity
  8
SANINDUSA
100
AcDbLine
 10
1061.539392504961
 20
904.2176104136805
 30
0.0
 11
1061.541505753615
 21
904.2176104136805
 31
0.0
  0
ARC
  5
5BE
330
23
100
AcDbEntity
  8
SANINDUSA
100
AcDbCircle
 10
1061.539392504961
 20
904.2226104136805
 30
0.0
 40
0.005
100
AcDbArc
 50
180.0
 51
270.0
  0
LINE
  5
5BF
330
23
100
AcDbEntity
  8
SANINDUSA
100
AcDbLine
 10
1061.534392504961
 20
904.4126104136806
 30
0.0
 11
1061.534392504961
 21
904.2226104136805
 31
0.0
  0
ARC
  5
5C0
330
23
100
AcDbEntity
  8
SANINDUSA
100
AcDbCircle
 10
1061.539392504961
 20
904.4126104136806
 30
0.0
 40
0.005
100
AcDbArc
 50
90.0
 51
180.0
  0
LINE
  5
5C1
330
23
100
AcDbEntity
  8
SANINDUSA
100
AcDbLine
 10
1061.539392504961
 20
904.4176104136806
 30
0.0
 11
1061.575892504961
 21
904.4176104136806
 31
0.0
  0
ARC
  5
5C2
330
23
100
AcDbEntity
  8
SANINDUSA
100
AcDbCircle
 10
1061.575892504961
 20
904.4166104136806
 30
0.0
 40
0.0010000000000002
100
AcDbArc
 50
0.0
 51
90.0
  0
LINE
  5
5C3
330
23
100
AcDbEntity
  8
SANINDUSA
100
AcDbLine
 10
1061.576892504961
 20
904.4166104136806
 30
0.0
 11
1061.576892504961
 21
904.4066104136806
 31
0.0
  0
ARC
  5
5C4
330
23
100
AcDbEntity
  8
SANINDUSA
100
AcDbCircle
 10
1061.575892504961
 20
904.4066104136806
 30
0.0
 40
0.0010000000000002
100
AcDbArc
 50
270.0
 51
0.0
  0
LINE
  5
5C5
330
23
100
AcDbEntity
  8
SANINDUSA
100
AcDbLine
 10
1061.549392504961
 20
904.4056104136805
 30
0.0
 11
1061.575892504961
 21
904.4056104136805
 31
0.0
  0
ARC
  5
5C6
330
23
100
AcDbEntity
  8
SANINDUSA
100
AcDbCircle
 10
1061.549392504961
 20
904.4006104136805
 30
0.0
 40
0.005
100
AcDbArc
 50
90.0
 51
180.0
  0
LINE
  5
5C7
330
23
100
AcDbEntity
  8
SANINDUSA
100
AcDbLine
 10
1061.544392504961
 20
904.4006104136805
 30
0.0
 11
1061.544392504961
 21
904.3321134632984
 31
0.0
  0
ARC
  5
5C8
330
23
100
AcDbEntity
  8
SANINDUSA
100
AcDbCircle
 10
1061.549392504961
 20
904.3321134632984
 30
0.0
 40
0.0050000000000001
100
AcDbArc
 50
180.0
 51
213.4625988858064
  0
LINE
  5
5C9
330
23
100
AcDbEntity
  8
SANINDUSA
100
AcDbLine
 10
1061.545221275292
 20
904.3293565006486
 30
0.0
 11
1061.56202439821
 21
904.3039337097953
 31
0.0
  0
LINE
  5
5CA
330
23
100
AcDbEntity
  8
SANINDUSA
100
AcDbLine
 10
1061.544392501981
 20
904.3124745109182
 30
0.0
 11
1061.544392501981
 21
904.2326104112964
 31
0.0
  0
LINE
  5
5CB
330
23
100
AcDbEntity
  8
SANINDUSA
100
AcDbLine
 10
1061.544392501981
 20
904.2326104112964
 30
0.0
 11
1061.550767948896
 21
904.2326104112964
 31
0.0
  0
LINE
  5
5CC
330
23
100
AcDbEntity
  8
SANINDUSA
100
AcDbLine
 10
1061.552807306916
 20
904.2997430780033
 30
0.0
 11
1061.550767948896
 21
904.2326104112964
 31
0.0
  0
LINE
  5
5CD
330
23
100
AcDbEntity
  8
SANINDUSA
100
AcDbLine
 10
1061.552807306916
 20
904.2997430780033
 30
0.0
 11
1061.544392501981
 21
904.3124745109182
 31
0.0
  0
ARC
  5
5D3
330
23
100
AcDbEntity
  8
SANINDUSA
100
AcDbCircle
 10
1062.524392504961
 20
904.3321134632984
 30
0.0
 40
0.0050000000000008
100
AcDbArc
 50
326.5374011141936
 51
0.0
  0
LINE
  5
5D4
330
23
100
AcDbEntity
  8
SANINDUSA
100
AcDbLine
 10
1062.529392504961
 20
904.3321134632984
 30
0.0
 11
1062.529392504961
 21
904.4006104136805
 31
0.0
  0
ARC
  5
5D5
330
23
100
AcDbEntity
  8
SANINDUSA
100
AcDbCircle
 10
1062.524392504961
 20
904.4006104136805
 30
0.0
 40
0.005
100
AcDbArc
 50
0.0
 51
90.0
  0
ARC
  5
5D6
330
23
100
AcDbEntity
  8
SANINDUSA
100
AcDbCircle
 10
1062.497892504961
 20
904.4066104136806
 30
0.0
 40
0.0009999999999998
100
AcDbArc
 50
180.0
 51
270.0
  0
LINE
  5
5D7
330
23
100
AcDbEntity
  8
SANINDUSA
100
AcDbLine
 10
1062.496892504961
 20
904.4066104136806
 30
0.0
 11
1062.496892504961
 21
904.4166104136806
 31
0.0
  0
ARC
  5
5D8
330
23
100
AcDbEntity
  8
SANINDUSA
100
AcDbCircle
 10
1062.497892504961
 20
904.4166104136806
 30
0.0
 40
0.0010000000000001
100
AcDbArc
 50
90.0
 51
180.0
  0
ARC
  5
5D9
330
23
100
AcDbEntity
  8
SANINDUSA
100
AcDbCircle
 10
1062.534392504961
 20
904.4126104136806
 30
0.0
 40
0.005
100
AcDbArc
 50
0.0
 51
90.0
  0
LINE
  5
5DA
330
23
100
AcDbEntity
  8
SANINDUSA
100
AcDbLine
 10
1062.539392504961
 20
904.2226104136805
 30
0.0
 11
1062.539392504961
 21
904.4126104136806
 31
0.0
  0
ARC
  5
5DB
330
23
100
AcDbEntity
  8
SANINDUSA
100
AcDbCircle
 10
1062.534392504961
 20
904.2226104136805
 30
0.0
 40
0.005
100
AcDbArc
 50
270.0
 51
0.0
  0
ARC
  5
5DC
330
23
100
AcDbEntity
  8
SANINDUSA
100
AcDbCircle
 10
1062.515931841381
 20
904.3011767471453
 30
0.0
 40
0.0050000000000003
100
AcDbArc
 50
146.5374011141935
 51
181.7399999997858
  0
LINE
  5
5DD
330
23
100
AcDbEntity
  8
SANINDUSA
100
AcDbLine
 10
1062.511760611712
 20
904.3039337097953
 30
0.0
 11
1062.52856373463
 21
904.3293565006486
 31
0.0
  0
LINE
  5
5DE
330
23
100
AcDbEntity
  8
SANINDUSA
100
AcDbLine
 10
1062.529392531187
 20
904.3124745109182
 30
0.0
 11
1062.520977726252
 21
904.2997430780033
 31
0.0
  0
LINE
  5
5DF
330
23
100
AcDbEntity
  8
SANINDUSA
100
AcDbLine
 10
1062.497892504961
 20
904.4176104136806
 30
0.0
 11
1062.534392504961
 21
904.4176104136806
 31
0.0
  0
LINE
  5
5E0
330
23
100
AcDbEntity
  8
SANINDUSA
100
AcDbLine
 10
1062.513168949961
 20
904.2274585933745
 30
0.0
 11
1062.510934146852
 21
904.3010249268393
 31
0.0
  0
LINE
  5
5E1
330
23
100
AcDbEntity
  8
SANINDUSA
100
AcDbLine
 10
1062.497892504961
 20
904.4056104136805
 30
0.0
 11
1062.524392504961
 21
904.4056104136805
 31
0.0
  0
ARC
  5
5E2
330
23
100
AcDbEntity
  8
SANINDUSA
100
AcDbCircle
 10
1062.518166644489
 20
904.2276104136805
 30
0.0
 40
0.0050000000000003
100
AcDbArc
 50
181.7399999997858
 51
270.0
  0
ARC
  5
5E3
330
23
100
AcDbEntity
  8
SANINDUSA
100
AcDbCircle
 10
1062.532279256307
 20
904.2226104136805
 30
0.0
 40
0.005
100
AcDbArc
 50
209.9999999970787
 51
270.0
  0
LINE
  5
5E4
330
23
100
AcDbEntity
  8
SANINDUSA
100
AcDbLine
 10
1062.532279256307
 20
904.2176104136805
 30
0.0
 11
1062.534392504961
 21
904.2176104136805
 31
0.0
  0
LINE
  5
5E5
330
23
100
AcDbEntity
  8
SANINDUSA
100
AcDbLine
 10
1062.529392531187
 20
904.2326104112964
 30
0.0
 11
1062.529392531187
 21
904.3124745109182
 31
0.0
  0
ARC
  5
5E6
330
23
100
AcDbEntity
  8
SANINDUSA
100
AcDbCircle
 10
1062.523619002269
 20
904.2176104136805
 30
0.0
 40
0.0050000000000004
100
AcDbArc
 50
29.99999999707869
 51
90.0
  0
LINE
  5
5E7
330
23
100
AcDbEntity
  8
SANINDUSA
100
AcDbLine
 10
1062.518166644489
 20
904.2226104136805
 30
0.0
 11
1062.523619002269
 21
904.2226104136805
 31
0.0
  0
LINE
  5
5E8
330
23
100
AcDbEntity
  8
SANINDUSA
100
AcDbLine
 10
1062.523017039568
 20
904.2326104112964
 30
0.0
 11
1062.520977726252
 21
904.2997430780033
 31
0.0
  0
LINE
  5
5E9
330
23
100
AcDbEntity
  8
SANINDUSA
100
AcDbLine
 10
1062.523017039568
 20
904.2326104112964
 30
0.0
 11
1062.529392531187
 21
904.2326104112964
 31
0.0
  0
LINE
  5
5EA
330
23
100
AcDbEntity
  8
SANINDUSA
100
AcDbLine
 10
1062.013392504961
 20
904.2267024525797
 30
0.0
 11
1062.060392504961
 21
904.2267024525797
 31
0.0
  0
LINE
  5
5EC
330
23
100
AcDbEntity
  8
SANINDUSA
100
AcDbLine
 10
1062.497892504961
 20
904.4056104136805
 30
0.0
 11
1062.460892504961
 21
904.4056104136805
 31
0.0
  0
LINE
  5
5F0
330
23
100
AcDbEntity
  8
SANINDUSA
100
AcDbLine
 10
1061.612892504961
 20
904.4176104136806
 30
0.0
 11
1061.575892504961
 21
904.4176104136806
 31
0.0
  0
LINE
  5
5F1
330
23
100
AcDbEntity
  8
SANINDUSA
100
AcDbLine
 10
1061.575892504961
 20
904.4056104136805
 30
0.0
 11
1061.612892504961
 21
904.4056104136805
 31
0.0
  0
LINE
  5
5F2
330
23
100
AcDbEntity
  8
SANINDUSA
100
AcDbLine
 10
1062.460892504961
 20
904.4176104136806
 30
0.0
 11
1062.497892504961
 21
904.4176104136806
 31
0.0
  0
LINE
  5
644
330
23
100
AcDbEntity
  8
SANINDUSA
100
AcDbLine
 10
1062.509713903028
 20
904.2176104136805
 30
0.0
 11
1061.564071106894
 21
904.2176104136805
 31
0.0
  0
LINE
  5
648
330
23
100
AcDbEntity
  8
SANINDUSA
100
AcDbLine
 10
1061.659932869267
 20
904.4176104136806
 30
0.0
 11
1061.65002303727
 21
904.4176104136806
 31
0.0
  0
LINE
  5
64A
330
23
100
AcDbEntity
  8
SANINDUSA
100
AcDbLine
 10
1062.413852140654
 20
904.4176104136806
 30
0.0
 11
1062.423761972651
 21
904.4176104136806
 31
0.0
  0
ELLIPSE
  5
652
330
23
100
AcDbEntity
  8
SANINDUSA
100
AcDbEllipse
 10
1061.658400876712
 20
904.2760120167701
 30
0.0
 11
0.0049734745384356
 21
0.0005317107988225
 31
0.0
210
0.0
220
0.0
230
1.0
 40
0.2569247725271993
 41
0.0071662283108022
 42
0.9747013114739072
  0
ELLIPSE
  5
65B
330
23
100
AcDbEntity
  8
SANINDUSA
100
AcDbEllipse
 10
1062.41538413321
 20
904.2760120167701
 30
0.0
 11
0.0049734745384347
 21
-0.0005317107988225
 31
0.0
210
0.0
220
0.0
230
1.0
 40
0.256924772527249
 41
2.166891342116
 42
3.134426425279063
  0
LINE
  5
65F
330
23
100
AcDbEntity
  8
SANINDUSA
100
AcDbLine
 10
1061.659932869267
 20
904.4176104136806
 30
0.0
 11
1062.413852140654
 21
904.4176104136806
 31
0.0
  0
ELLIPSE
  5
66C
330
23
100
AcDbEntity
  8
SANINDUSA
100
AcDbEllipse
 10
1061.567093325712
 20
904.2760120167701
 30
0.0
 11
0.0049986387213639
 21
-0.0001205284485889
 31
0.0
210
0.0
220
0.0
230
1.0
 40
0.2553378859417867
 41
2.072303989588418
 42
3.139993926303184
  0
ELLIPSE
  5
66E
330
23
100
AcDbEntity
  8
SANINDUSA
100
AcDbEllipse
 10
1062.50669168421
 20
904.2760120167701
 30
0.0
 11
0.0049986387213642
 21
0.000120528448589
 31
0.0
210
0.0
220
0.0
230
0.9999999999999998
 40
0.2553378859417748
 41
0.0015987272865695
 42
1.06928866400138
  0
ARC
  5
67E
330
23
100
AcDbEntity
  8
SANINDUSA
100
AcDbCircle
 10
1061.597055059557
 20
904.3596104136806
 30
0.0
 40
0.02
100
AcDbArc
 50
90.0
 51
173.3570825487746
  0
ARC
  5
681
330
23
100
AcDbEntity
  8
SANINDUSA
100
AcDbCircle
 10
1061.621278689161
 20
904.3596104136806
 30
0.0
 40
0.0200000000000002
100
AcDbArc
 50
11.78751007717671
 51
90.0
  0
LINE
  5
684
330
23
100
AcDbEntity
  8
SANINDUSA
100
AcDbLine
 10
1061.597055059557
 20
904.3796104136806
 30
0.0
 11
1061.621278689161
 21
904.3796104136806
 31
0.0
  0
ARC
  5
686
330
23
100
AcDbEntity
  8
SANINDUSA
100
AcDbCircle
 10
1062.452506320762
 20
904.3596104136806
 30
0.0
 40
0.0200000000000002
100
AcDbArc
 50
90.0
 51
168.2124899228233
  0
ARC
  5
689
330
23
100
AcDbEntity
  8
SANINDUSA
100
AcDbCircle
 10
1062.476729950365
 20
904.3596104136806
 30
0.0
 40
0.02
100
AcDbArc
 50
6.642917451225378
 51
90.0
  0
LINE
  5
68B
330
23
100
AcDbEntity
  8
SANINDUSA
100
AcDbLine
 10
1062.476729950365
 20
904.3796104136806
 30
0.0
 11
1062.452506320762
 21
904.3796104136806
 31
0.0
  0
LINE
  5
68C
330
23
100
AcDbEntity
  8
SANINDUSA
100
AcDbLine
 10
1061.640856928034
 20
904.3636960669489
 30
0.0
 11
1061.642842335862
 21
904.3541820954533
 31
0.0
  0
LINE
  5
68E
330
23
100
AcDbEntity
  8
SANINDUSA
100
AcDbLine
 10
1062.432928081888
 20
904.3636960669489
 30
0.0
 11
1062.430942674059
 21
904.3541820954533
 31
0.0
  0
LINE
  5
690
330
23
100
AcDbEntity
  8
SANINDUSA
100
AcDbLine
 10
1061.570791725613
 20
904.3069915612731
 30
0.0
 11
1061.577189331693
 21
904.3619240377781
 31
0.0
  0
LINE
  5
693
330
23
100
AcDbEntity
  8
SANINDUSA
100
AcDbLine
 10
1062.502993284309
 20
904.3069915612731
 30
0.0
 11
1062.496595678228
 21
904.3619240377781
 31
0.0
  0
ARC
  5
694
330
23
100
AcDbEntity
  8
SANINDUSA
100
AcDbCircle
 10
1061.679868507639
 20
904.2913264287372
 30
0.0
 40
0.0234061213368989
100
AcDbArc
 50
191.2363327118764
 51
216.6096379297507
  0
LWPOLYLINE
  5
695
330
23
100
AcDbEntity
  8
SANINDUSA
100
AcDbPolyline
 90
       11
 70
   128
 43
0.0
 10
1061.642842335672
 20
904.35418209369
 10
1061.644313899845
 20
904.3471304395298
 10
1061.645781258166
 20
904.3400989317397
 10
1061.647240536333
 20
904.3331061446171
 10
1061.648687886119
 20
904.3261705257993
 10
1061.650119485379
 20
904.3193103664618
 10
1061.651531560392
 20
904.3125437864166
 10
1061.652920378417
 20
904.3058886298041
 10
1061.65428228122
 20
904.2993624650936
 10
1061.655613673896
 20
904.2929825105767
 10
1061.65691103977
 20
904.286765597115
  0
LWPOLYLINE
  5
696
330
23
100
AcDbEntity
  8
SANINDUSA
100
AcDbPolyline
 90
       11
 70
   128
 43
0.0
 10
1062.430942645342
 20
904.35418209369
 10
1062.429471125871
 20
904.3471304395298
 10
1062.428003778727
 20
904.3400989317397
 10
1062.426544478208
 20
904.3331061446171
 10
1062.425097098619
 20
904.3261705257993
 10
1062.423665514261
 20
904.3193103664618
 10
1062.422253420622
 20
904.3125437864166
 10
1062.420864632398
 20
904.3058886298041
 10
1062.41950272587
 20
904.2993624650936
 10
1062.41817133692
 20
904.2929825105767
 10
1062.416873982221
 20
904.286765597115
  0
ARC
  5
697
330
23
100
AcDbEntity
  8
SANINDUSA
100
AcDbCircle
 10
1062.393916352708
 20
904.2913265302374
 30
0.0
 40
0.0234062996609832
100
AcDbArc
 50
323.3903768384376
 51
348.7635006923058
  0
ELLIPSE
  5
698
330
23
100
AcDbEntity
  8
SANINDUSA
100
AcDbEllipse
 10
1061.564392504961
 20
904.3429437470139
 30
0.0
 11
0.0
 21
0.6266666666666904
 31
0.0
210
0.0
220
0.0
230
1.0
 40
0.0319148936170201
 41
1.61949393301695
 42
1.635202547586528
  0
LINE
  5
699
330
23
100
AcDbEntity
  8
SANINDUSA
100
AcDbLine
 10
1061.541505753615
 20
904.2176104136805
 30
0.0
 11
1061.564071106894
 21
904.2176104136805
 31
0.0
  0
LINE
  5
69A
330
23
100
AcDbEntity
  8
SANINDUSA
100
AcDbLine
 10
1062.532279256307
 20
904.2176104136805
 30
0.0
 11
1062.509713903028
 21
904.2176104136805
 31
0.0
  0
LINE
  5
69C
330
23
100
AcDbEntity
  8
SANINDUSA
100
AcDbLine
 10
1061.570057243473
 20
904.3006849956007
 30
0.0
 11
1061.570690119828
 21
904.306119132226
 31
0.0
  0
LINE
  5
6A0
330
23
100
AcDbEntity
  8
SANINDUSA
100
AcDbLine
 10
1062.503727766449
 20
904.3006849956007
 30
0.0
 11
1062.503094890094
 21
904.306119132226
 31
0.0
  0
ARC
  5
6A2
330
23
100
AcDbEntity
  8
SANINDUSA
100
AcDbCircle
 10
1061.549128907335
 20
904.2887618784595
 30
0.0
 40
0.0194145352644578
100
AcDbArc
 50
323.4098432449479
 51
354.7797698696013
  0
LWPOLYLINE
  5
6A3
330
23
100
AcDbEntity
  8
SANINDUSA
100
AcDbPolyline
 90
        4
 70
   128
 43
0.0
 10
1061.568462917626
 20
904.2869954624276
 10
1061.568986283661
 20
904.2914892801146
 10
1061.569518031598
 20
904.2960551151137
 10
1061.570057245017
 20
904.3006849953036
  0
ARC
  5
6A5
330
23
100
AcDbEntity
  8
SANINDUSA
100
AcDbCircle
 10
1062.52465659376
 20
904.2887620375431
 30
0.0
 40
0.0194150416945848
100
AcDbArc
 50
185.2205650119077
 51
216.5896319260483
  0
LWPOLYLINE
  5
6A6
330
23
100
AcDbEntity
  8
SANINDUSA
100
AcDbPolyline
 90
        4
 70
   128
 43
0.0
 10
1062.505322089464
 20
904.2869954624276
 10
1062.504798701078
 20
904.2914892801146
 10
1062.504266968042
 20
904.2960551151137
 10
1062.503727784426
 20
904.3006849953036
  0
LWPOLYLINE
  5
6AC
330
23
100
AcDbEntity
  8
SANINDUSA
100
AcDbPolyline
 90
        4
 70
   128
 43
0.0
 10
1061.570690119684
 20
904.3061191358667
 10
1061.570723978848
 20
904.306409864972
 10
1061.570757852912
 20
904.3067007132869
 10
1061.570791726977
 20
904.3069915616015
  0
LWPOLYLINE
  5
6AD
330
23
100
AcDbEntity
  8
SANINDUSA
100
AcDbPolyline
 90
        4
 70
   128
 43
0.0
 10
1062.503094902307
 20
904.3061191358667
 10
1062.503061046869
 20
904.306409864972
 10
1062.503027131826
 20
904.3067007132869
 10
1062.502993276388
 20
904.3069915616015
  0
ENDSEC
  0
SECTION
  2
OBJECTS
  0
DICTIONARY
  5
C
330
0
100
AcDbDictionary
281
     1
  3
ACAD_COLOR
350
1C
  3
ACAD_GROUP
350
D
  3
ACAD_LAYOUT
350
1A
  3
ACAD_MATERIAL
350
1B
  3
ACAD_MLINESTYLE
350
17
  3
ACAD_PLOTSETTINGS
350
19
  3
ACAD_PLOTSTYLENAME
350
E
  3
ACAD_TABLESTYLE
350
1D
  3
ACDBHEADERROUNDTRIPXREC
350
99C
  3
AcDbVariableDictionary
350
995
  0
DICTIONARY
  5
1C
102
{ACAD_REACTORS
330
C
102
}
330
C
100
AcDbDictionary
281
     1
  0
DICTIONARY
  5
D
102
{ACAD_REACTORS
330
C
102
}
330
C
100
AcDbDictionary
281
     1
  0
DICTIONARY
  5
1A
102
{ACAD_REACTORS
330
C
102
}
330
C
100
AcDbDictionary
281
     1
  3
Layout1
350
22
  3
Layout2
350
2A
  3
Model
350
26
  0
DICTIONARY
  5
1B
102
{ACAD_REACTORS
330
C
102
}
330
C
100
AcDbDictionary
281
     1
  0
DICTIONARY
  5
17
102
{ACAD_REACTORS
330
C
102
}
330
C
100
AcDbDictionary
281
     1
  3
Standard
350
18
  0
DICTIONARY
  5
19
102
{ACAD_REACTORS
330
C
102
}
330
C
100
AcDbDictionary
281
     1
  0
ACDBDICTIONARYWDFLT
  5
E
102
{ACAD_REACTORS
330
C
102
}
330
C
100
AcDbDictionary
281
     1
  3
Normal
350
F
100
AcDbDictionaryWithDefault
340
F
  0
DICTIONARY
  5
1D
102
{ACAD_REACTORS
330
C
102
}
330
C
100
AcDbDictionary
281
     1
  3
Standard
350
1E
  0
DICTIONARY
  5
99C
102
{ACAD_REACTORS
330
C
102
}
330
C
100
AcDbDictionary
281
     1
  0
DICTIONARY
  5
995
102
{ACAD_REACTORS
330
C
102
}
330
C
100
AcDbDictionary
281
     1
  3
CTABLESTYLE
350
996
  3
DIMASSOC
350
999
  3
HIDETEXT
350
998
  3
PROJECTNAME
350
99A
  0
LAYOUT
  5
22
102
{ACAD_XDICTIONARY
360
99D
102
}
102
{ACAD_REACTORS
330
1A
102
}
330
1A
100
AcDbPlotSettings
  1

  2
C:\Documents and Settings\Julio\Application Data\Autodesk\AutoCAD 2006\R16.2\enu\plotters\Default Windows System Printer.pc3
  4

  6

 40
0.0
 41
0.0
 42
0.0
 43
0.0
 44
0.0
 45
0.0
 46
0.0
 47
0.0
 48
0.0
 49
0.0
140
0.0
141
0.0
142
1.0
143
1.0
 70
   688
 72
     0
 73
     0
 74
     5
  7

 75
    16
147
1.0
148
0.0
149
0.0
100
AcDbLayout
  1
Layout1
 70
     1
 71
     1
 10
0.0
 20
0.0
 11
420.0
 21
297.0
 12
0.0
 22
0.0
 32
0.0
 14
1.000000000000000E+20
 24
1.000000000000000E+20
 34
1.000000000000000E+20
 15
-1.000000000000000E+20
 25
-1.000000000000000E+20
 35
-1.000000000000000E+20
146
0.0
 13
0.0
 23
0.0
 33
0.0
 16
1.0
 26
0.0
 36
0.0
 17
0.0
 27
1.0
 37
0.0
 76
     0
330
1F
  0
LAYOUT
  5
2A
102
{ACAD_XDICTIONARY
360
9A1
102
}
102
{ACAD_REACTORS
330
1A
102
}
330
1A
100
AcDbPlotSettings
  1

  2
C:\Documents and Settings\Julio\Application Data\Autodesk\AutoCAD 2006\R16.2\enu\plotters\Default Windows System Printer.pc3
  4

  6

 40
0.0
 41
0.0
 42
0.0
 43
0.0
 44
0.0
 45
0.0
 46
0.0
 47
0.0
 48
0.0
 49
0.0
140
0.0
141
0.0
142
1.0
143
1.0
 70
   688
 72
     0
 73
     0
 74
     5
  7

 75
    16
147
1.0
148
0.0
149
0.0
100
AcDbLayout
  1
Layout2
 70
     1
 71
     2
 10
0.0
 20
0.0
 11
12.0
 21
9.0
 12
0.0
 22
0.0
 32
0.0
 14
0.0
 24
0.0
 34
0.0
 15
0.0
 25
0.0
 35
0.0
146
0.0
 13
0.0
 23
0.0
 33
0.0
 16
1.0
 26
0.0
 36
0.0
 17
0.0
 27
1.0
 37
0.0
 76
     0
330
27
  0
LAYOUT
  5
26
102
{ACAD_XDICTIONARY
360
99F
102
}
102
{ACAD_REACTORS
330
1A
102
}
330
1A
100
AcDbPlotSettings
  1

  2
C:\Documents and Settings\Julio\Application Data\Autodesk\AutoCAD 2006\R16.2\enu\plotters\Default Windows System Printer.pc3
  4

  6

 40
0.0
 41
0.0
 42
0.0
 43
0.0
 44
0.0
 45
0.0
 46
0.0
 47
0.0
 48
0.0
 49
0.0
140
0.0
141
0.0
142
1.0
143
1.0
 70
  1712
 72
     0
 73
     0
 74
     0
  7

 75
     0
147
1.0
148
0.0
149
0.0
100
AcDbLayout
  1
Model
 70
     1
 71
     0
 10
0.0
 20
0.0
 11
12.0
 21
9.0
 12
0.0
 22
0.0
 32
0.0
 14
0.0
 24
0.0
 34
0.0
 15
0.0
 25
0.0
 35
0.0
146
0.0
 13
0.0
 23
0.0
 33
0.0
 16
1.0
 26
0.0
 36
0.0
 17
0.0
 27
1.0
 37
0.0
 76
     0
330
23
  0
MLINESTYLE
  5
18
102
{ACAD_REACTORS
330
17
102
}
330
17
100
AcDbMlineStyle
  2
STANDARD
 70
     0
  3

 62
   256
 51
90.0
 52
90.0
 71
     2
 49
0.5
 62
   256
  6
BYLAYER
 49
-0.5
 62
   256
  6
BYLAYER
  0
ACDBPLACEHOLDER
  5
F
102
{ACAD_REACTORS
330
E
102
}
330
E
  0
TABLESTYLE
  5
1E
102
{ACAD_REACTORS
330
1D
102
}
330
1D
100
AcDbTableStyle
  3
Standard
 70
     0
 71
     0
 40
1.5
 41
1.5
280
     0
281
     0
  7
Standard
140
4.5
170
     2
 62
     0
 63
     7
283
     0
274
    -2
284
     1
 64
     0
275
    -2
285
     1
 65
     0
276
    -2
286
     1
 66
     0
277
    -2
287
     1
 67
     0
278
    -2
288
     1
 68
     0
279
    -2
289
     1
 69
     0
  7
Standard
140
6.0
170
     5
 62
     0
 63
     7
283
     0
274
    -2
284
     1
 64
     0
275
    -2
285
     1
 65
     0
276
    -2
286
     1
 66
     0
277
    -2
287
     1
 67
     0
278
    -2
288
     1
 68
     0
279
    -2
289
     1
 69
     0
  7
Standard
140
4.5
170
     5
 62
     0
 63
     7
283
     0
274
    -2
284
     1
 64
     0
275
    -2
285
     1
 65
     0
276
    -2
286
     1
 66
     0
277
    -2
287
     1
 67
     0
278
    -2
288
     1
 68
     0
279
    -2
289
     1
 69
     0
  0
DICTIONARYVAR
  5
996
102
{ACAD_REACTORS
330
995
102
}
330
995
100
DictionaryVariables
280
     0
  1
STANDARD
  0
DICTIONARYVAR
  5
999
102
{ACAD_REACTORS
330
995
102
}
330
995
100
DictionaryVariables
280
     0
  1
2
  0
DICTIONARYVAR
  5
998
102
{ACAD_REACTORS
330
995
102
}
330
995
100
DictionaryVariables
280
     0
  1
1
  0
DICTIONARYVAR
  5
99A
102
{ACAD_REACTORS
330
995
102
}
330
995
100
DictionaryVariables
280
     0
  1

  0
DICTIONARY
  5
99D
330
22
100
AcDbDictionary
280
     1
281
     1
  3
ACAD_XREC_ROUNDTRIP
360
99E
  0
DICTIONARY
  5
9A1
330
2A
100
AcDbDictionary
280
     1
281
     1
  3
ACAD_XREC_ROUNDTRIP
360
9A2
  0
DICTIONARY
  5
99F
330
26
100
AcDbDictionary
280
     1
281
     1
  3
ACAD_XREC_ROUNDTRIP
360
9A0
  0
XRECORD
  5
99E
102
{ACAD_REACTORS
330
99D
102
}
330
99D
100
AcDbXrecord
280
     1
102
SHADEPLOT
 70
     0
102
SHADEPLOTRESLEVEL
 70
     2
102
SHADEPLOTCUSTOMDPI
 70
   300
  0
XRECORD
  5
9A2
102
{ACAD_REACTORS
330
9A1
102
}
330
9A1
100
AcDbXrecord
280
     1
102
SHADEPLOT
 70
     0
102
SHADEPLOTRESLEVEL
 70
     2
102
SHADEPLOTCUSTOMDPI
 70
   300
  0
XRECORD
  5
9A0
102
{ACAD_REACTORS
330
99F
102
}
330
99F
100
AcDbXrecord
280
     1
102
SHADEPLOT
 70
     0
102
SHADEPLOTRESLEVEL
 70
     2
102
SHADEPLOTCUSTOMDPI
 70
   300
  0
ENDSEC
  0
EOF
